» » »

Posters Tabs (ver.2)

Artists:  A B C D E F G H I J K L M N O P Q R S T U V W X Y Z # 

Posters Tabs (ver.2)

Jack Johnson
Rating:
0/5 (0 votes)

Hard to play? Try these video lessons and learn fast.
                :  jack johnson's  :
                        ::      POSTERS     ::
                         :  by peter st j.  :

 Thanks for using my first tab and please rate it when you're done.

 Introduction:
 |--------------0-|----------------|--------------0-|------------0-0-
 |--------0h2p0-0-|2/4-4---5-4-2-0-|--------0h2p0-0-|2/4-4---0-0-2-2-
 |-------------1--|4/6-6-----------|-------------1--|4/6-6---0-0-2-2-
 |----------------|4/6-6-----------|----------------|4/6-6---0-0-2-2-
 |----------------|----------------|----------------|--------2-2-0-0-
 |0---------------|----------------|0---------------|--------3-3-----
 

 Pre-verse and Verse:
 |--------0--0--0-|--------0--0--0-|--------0--0--0-|--------0--0--0-
 |--------0--0--0-|--------0--0--0-|--------0--0--0-|--------0--0--0-
 |--------1--1--1-|--------1--1--1-|--------1--1--1-|--------1--1--1-
 |--------2--2--2-|--------2--2--2-|--------2--2--2-|--------2--2--2-
 |--------2--2-2-2|4------------2-2|--------2--2-2-2|4------------2-2
 |0---------------|----------------|0---------------|----------------
 "Looking at himself..."

 Chorus:
 |0-------0--0----|2--2----2--2----|--------------0-|----------------
 |2-------2--2----|4--4----4--4----|--------0h2p0-0-|2-2---4-4---2-2-
 |2-------2--2----|4--4----4--4----|-------------1--|4-4---6-6---4-4-
 |2-------2--2----|4--4----4--4----|----------------|4-4---6-6---4-4-
 |0-------0--0----|2--2----2--2----|----------------|----------------
 |----------------|----------------|0---------------|----------------
 "He gets his courage..."

 Interlude:
 |--------0--0----|--------2-------|----------------|----------------
 |--------0--0----|--------3-------|----------------|----------------
 |--------1--1----|--------2-------|--------6--6----|--------4--4----
 |--------2--2----|0--------------0|--------6--6----|--------4--4----
 |----------------|----------------|4---------------|--------2--2----
 |0---------------|----------------|----------------|----------------
 "And if it ain't..."

 Repeat the patterns above in this order:
    Introduction x1
    Pre-verse x1
    Verse x2
    Chorus x2
    Verse x2
    Chorus x2
    Interlude x2
    Pre-verse x1
    Verse x4
            
Hard to play? Try these video lessons and learn fast. | Correct




comments powered by Disqus
↑ Back to top | Tablatures and chords are parodies/interpretations of the original songs. You may use it for private study, scholarship, research or language learning purposes only