» » »

Jack Johnson, Posters Bass tabs (ver.1)

Artists:  A B C D E F G H I J K L M N O P Q R S T U V W X Y Z # 

Posters Bass tabs (ver.1)

Jack Johnson Tabs
 Rating:
4/5 (4 votes)
Posters lessons Tabs too difficult? Try these video lessons and learn fast
                i play this song only on the E-string, because i think it's easier, and it sounds better.

intro
G| --------------------------------|
D| --------------------------------|
A| --------------------------------|
E| 5-------5-5-----5-56------------|

(12 and 11 are twelve and eleven)
G| ---------------------------------|
D| ---------------------------------|
A| ---------------------------------|
E| 0-------7-7-----9-------1211-9-7-|
                                        > x2
G| --------------------------------|
D| --------------------------------|
A| --------------------------------|
E| 0-------7-7-----9-------3---5---|

looking at himself...
G| --------------------------------|
D| --------------------------------|
A| --------------------------------|    x4
E| 0-------7-7-----9-------7-7-----|

he gets his courage...
G| --------------------------------|
D| --------------------------------|
A| --------------------------------|
E| 5-------5-5-----7-------7-7-----|

G| --------------------------------|
D| --------------------------------|
A| --------------------------------|
E| 0-------7-7-----9-------7-7-----|

cuz when he's not drunk...
G| --------------------------------|
D| --------------------------------|
A| --------------------------------|
E| 5-------5-5-----7-------7-7-----|

G| --------------------------------|
D| --------------------------------|
A| --------------------------------|     x2
E| 0-------7-7-----9-------7-7-----|

looking at herself...
G| --------------------------------|
D| --------------------------------|
A| --------------------------------|     x4
E| 0-------7-7-----9-------7-7-----|

all caught up in the trends...
G| --------------------------------|
D| --------------------------------|
A| --------------------------------|
E| 5-------5-5-----7-------7-7-----|

G| --------------------------------|
D| --------------------------------|
A| --------------------------------|
E| 0-------7-7-----9-------7-7-----|

cuz when the pretty girl walks...
G| --------------------------------|
D| --------------------------------|
A| --------------------------------|
E| 5-------5-5-----7-------7-7-----|

G| --------------------------------|
D| --------------------------------|
A| --------------------------------|
E| 0-------7-7-----9-------7-7-----|

and if it aint this...
G| --------------------------------|
D| --------------------------------|
A| --------------------------------|     x2
E| 12------10------9-------7-------|

G| ---------------------------------|
D| ---------------------------------|
A| ---------------------------------|
E| 0-------7-7-----9-------1211-9-7-|

G| --------------------------------|
D| --------------------------------|
A| --------------------------------|
E| 0-------7-7-----9-------3---5---|

well im an energetic hypothetic...
G| --------------------------------|
D| --------------------------------|
A| --------------------------------|     x3
E| 0-------7-7-----9-------7-7-----|

Here comes another one
G| --------------------------------|
D| --------------------------------|
A| --------------------------------|
E| 5-------5-5-----7-------7-7-----|

G| --------------------------------|
D| --------------------------------|
A| --------------------------------|     x2
E| 0-------7-7-----9-------7-7-----|

G| --------------------------------|
D| --------------------------------|
A| --------------------------------|
E| 0-------------------------------|
            
Submit corrections

comments powered by Disqus
↑ Back to top | Jack Johnson Bass for Posters. Lyrics for acoustic guitar and electric guitar. Tablatures and chords are parodies/interpretations of the original songs. You may use it for private study, scholarship, research or language learning purposes only