» » »

Jack Johnson, Posters Tabs (ver.3)

Artists:  A B C D E F G H I J K L M N O P Q R S T U V W X Y Z # 

Posters Tabs (ver.3)

Jack Johnson Tabs
Rating:
0/5 (0 votes)
Posters lessons Tabs too difficult? Try these video lessons and learn fast
                |----------------------------------------------------------------|
|---------0h2p0--0--------------------------------------------|
|---------1--------1----------------------------------------|
|--------------------------2-----------4s6-6--9--8--6--4----|
|-------------------------------2--2---2s4-4--7--6--4--2----|
|0-0--------------------------------------------------------|


|------------------------------------------------------------|
|---------0h2p0--0-------------------------------------------|
|---------1--------1---------------------------00---22-------|
|------------------------2----------4s6-6--------------------|
|----------------------------2--2---2s6-4----------00--------|
|0-0-------------------------------------------33------------|
            
Submit corrections

comments powered by Disqus
↑ Back to top | Jack Johnson Tabs for Posters. Lyrics for acoustic guitar and electric guitar. Tablatures and chords are parodies/interpretations of the original songs. You may use it for private study, scholarship, research or language learning purposes only