» » »

Jace Everett, Bad Things Tabs (ver.3)

Artists:  A B C D E F G H I J K L M N O P Q R S T U V W X Y Z # 

Bad Things Tabs (ver.3)

Jace Everett Tabs
Rating:
3/5 (1 vote)
Bad Things lessons Tabs too difficult? Try these video lessons and learn fast
                intro

E ---0-2-0h3b4-3-0-- (last E should be a downstroke)

The Em bit is an upbeat rhythm (strum up, then down, then up) kinda like LaGrange. 

   u d u   u d u
e--------------------|
b--------------------|
g--------------------|
d--2-2-2---2-2-2-----| x Ad Nauseum
a--2-2-2---2-3-2-----|
E--0-3-0---0-0-0-----|

The Em sounds like it always transistions after "power C" bit.

Em            B7              Em  
When you came in the air went out
Em         B7            Em
And every shadow filled up with doubt
Am                   Em (single Em)        B7            Em (back to riff)
I don't know who you think you are but before the night is through
        B7                Em
I wanna do bad things with you

  d u d u d u d   u  d
e-0-0-0-0-0-0----------|
b-5---3---0------------|
g-------------2r0------| (I quarter-bend the 2 before releasing)
d-----------------2--2-| 
a--------------------2-| (back to Em riff)
E--------------------0-|

Em          B7                 Em
I'm the kind to sit up in his room
Em          B7                 Em
Heart sick an' eyes filled up with blue
Am                   Em                   B7                Em
I don't know what you've done to me but I know this much is true
Em       B7                Em
I wanna do bad things with you...okay

Solo
|----------------------------------------------------------|
|--------------------------------10b12-10r8----------------| 
|----4b5r4-2-------------------------------9---------------| 
|----------------------------------------------------------| 
|----------------------------------------------------------| 
|----------------------------------------------------------| 

(I'm not entirely sure this phrase is 100% but it's in key and sounds close)
|----------------------------------------------------------| 
|----------------------------------------------------------| 
|---9-8-9-11-9-11-12-11-12-12b14-12-9----------------------| 
|----------------------------------------------------------|
|----------------------------------------------------------| 
|----------------------------------------------------------| 

|----------------------------------------------------------| 
|-5-5--3-0-------------------------------------------------| 
|----------2r0-3r2r0-2--3r2r0-2-0--------------------------| 
|---------------------------------2-0----------------------| 
|-------------------------------------2-0------------------| 
|-----------------------------------------3-2-0------------| 

Em            B7              Em
When you came in the air went out
Em            B7              Em
And all those shadows there are filled up with doubt
Am                   Em                   B7                Em
I don't know who you think you are but before the night is through
Em       B7                Em
I wanna do bad things with you

I wanna do real bad things with you

Second solo / outro (not tabbed yet, sorry)
            
Submit corrections

comments powered by Disqus
↑ Back to top | Jace Everett Tabs for Bad Things. Lyrics for acoustic guitar and electric guitar. Tablatures and chords are parodies/interpretations of the original songs. You may use it for private study, scholarship, research or language learning purposes only