>
 >
Bad Things

Bad Things Guitar Tabs

Jace Everett - Bad Things chords, tabs, tablatures, lyrics

Guitar lessons | Add/correct | Request | Top 50 tabs Artists:  A B C D E F G H I J K L M N O P Q R S T U V W X Y Z 0-9

Bad Things Guitar Tabs – Jace Everett

CD, Sheet music, Poster

Do you like Bad Things? Share with your friends now
Bass TabsBass Tabs v2ChordsChords v2Chords v3Chords v4TabsTabs v2Tabs v3Tabs v4Tabs v5Tabs v6Ukulele
Tuning: Standard

Fun song to play. This might not be 100 percent correct, so feel free to play around 
with it there are a lot of bits here and there.

INTRO
Guitar I
|-------------------|
|-------------------|
|-------------------|
|-------------------|
|-------------------|
|-0-h2p0-3b-3-0-----|

Guitar I
(Play this the entire song, I think)
|---------------------------------|
|---------------------------------|
|---------------------------------|
|-2-2-2---2-2-2---2-2-2---2-2-2---|
|-2-2-2---2-3-2---2-2-2---2-3-2---|
|-0-3-0---0-0-0---0-3-0---0-0-0---|

Right Before the Drums Come In
Guitar II
|------3~----|
|----5~------|
|--4~--------|
|------------|
|------------|
|------------|

VERSE

In the Verse, Guitar one is real quiet.

Guitar I
|-0-------------2----------------0-----------------------------------|
|-0-------------x-------0--------0-----------------------------------|
|-0-------------2----------------0-----------------------------------|
|-2-------------1----------------2---2-2-2---2-2-2---2-2-2---2-2-2---|
|-2-------------2----------------2---2-2-2---2-3-2---2-2-2---2-3-2---|
|-0------------------------------0---0-3-0---0-0-0---0-3-0---0-0-0---|
| “When you came in the air went out”
|
| Guitar II
|----------------------------------------------12~------------/7~----|
|--------------------------------------------------------------------|
|--------------------------------------------------------------------|
|--------------------------------------------------------------------|
|--------------------------------------------------------------------|
|--------------------------------------------------------------------|


 Guitar I
|-0-------------2----------------0-----------------------------------|
|-0-------------x---------0------0-----------------------------------|
|-0-------------2-------2--------0-----------------------------------|
|-2-------------1----------------2---2-2-2---2-2-2---2-2-2---2-2-2---|
|-2-------------2----------------2---2-2-2---2-3-2---2-2-2---2-3-2---|
|-0------------------------------0---0-3-0---0-0-0---0-3-0---0-0-0---|
|
|Guitar II
|----------------------------------------------------12~-\-\-\-\-\-\-|
|----------------------------------------------------12~-\-\-\-\-\-\-|
|--------------------------------------------------------------------|
|--------------------------------------------------------------------|
|--------------------------------------------------------------------|
|--------------------------------------------------------------------|

 Guitar I
|-0----------0---------0---------------------------------------------|
|-1----------0---------x---------5-----------------------------------|
|-2----------0---------2---------4-----------------------------------|
|-2----------2---------1---------2-----------------------------------|
|-0----------2---------2---------2-----------------------------------|
|-0----------0-------------------0-----------------------------------|
|
|Guitar II
|------------7-------------------------------------------------------|
|------------5---------------------9~--------------------------------|
|------------4-------------------------------------------------------|
|--------------------------------------------------------------------|
|--------------------------------------------------------------------|
|--------------------------------------------------------------------|

 Guitar I
|-0--------------------0---------------------------------------------|
|-x--------------------0---------------------------------------------|
|-2--------------------0---------------------------------------------|
|-1--------------------2---------------------------------------------|
|-2--------------------2---------------------------------------------|
|----------------------0---------------------------------------------|
|
|Guitar II
|----------------------/12~---------/7~---------/3~------------------|
|--------------------------------------------------------------------|
|--------------------------------------------------------------------|
|--------------------------------------------------------------------|
|--------------------------------------------------------------------|
|--------------------------------------------------------------------|

Verse II
(From here on out the chords are pretty much the same for the rest of the song so I 
didn't bother tabbing the same chords it six dozen times)

After 1st time					2nd time
|-12~-----------15-12~---10-----------------15~-15--12~-12--7~-7--12~-12-|
|---------12-15-------------12-------------------------------------------|
|-------------------------------------------12~-12--9~--9---4~-4--9~--9--|
|------------------------------------------------------------------------|
|------------------------------------------------------------------------|
|------------------------------------------------------------------------|

   3rd Time					Intro Solo I
|-0-2-3-5-3~-------------------------------12~----7~----5~----7~-----|
|--------------------4~----------------------------------------------|
|--------------------------------------------------------------------|
|--------------------------------------------------------------------|
|--------------------------------------------------------------------|
|--------------------------------------------------------------------|

Solo I
|----------------------------------------------|
|--------------------10h12b~----10h12p10-------|
|-4b5~--r4--2~---------------------------9~----|
|----------------------------------------------|
|----------------------------------------------|
|----------------------------------------------|

|---------------------------------------|
|---------------------------------------|
|-9-8-9-11/-x-11-9-12-9-12b14d12-9~-----|
|---------------------------------------|
|---------------------------------------|
|---------------------------------------|

|-0---0---0---0---------------------------------------------------------|
|-5---5---3---0---------------------------------------------------------|
|-----------------0h3-2-0-2~--0h3-2-0-2~--0-----------------------------|
|-------------------------------------------2---0-----------------------|
|-------------------------------------------------2---0-----------------|
|-------------------------------------------------------3b---2---0\/----|


Brudge
Air went out..
|-15-14-12-14-12-10-12-10----10----10-12~------------------------|
|-------------------------12----12-------------------------------|
|----------------------------------------------------------------|
|----------------------------------------9--\5--/7--\4--/5-------|
|----------------------------------------------------------------|
|----------------------------------------------------------------|

Lead riffs					  Intro to Solo II
|---------------------12---7---5---7~\-----------------------------------|
|------------------------------------------------------------------------|
|-9-11-12-9~------------------------------------/12--11--9--11--12--11-9-|
|------------------------------------------------------------------------|
|------------------------------------------------------------------------|
|------------------------------------------------------------------------|


Solo 2 (bare with me the instrument here is iffy with being in tune since it’s used with 
a slide)
|--------------------------------------------------------------------|
|-------------5-------5---------------------------------4b(5)d-5p3p0-|
|---------4-------2h4-----4-8b---4-8b---4-8b---4-8b---4--------------|
|-2-4-5--------------------------------------------------------------|
|--------------------------------------------------------------------|
|--------------------------------------------------------------------|

|------------------------------------------.-.-.-.-.-.-.-.-.-.--|
|-4b(5)d-5p3p0-4b(5)d-5p3p0-----5----------5-5-5-5-5-5-5-5-5-5--|
|---------------------------4-----4--------0-0-4-0-4-0-4-0-4-0--|
|-------------------------------------5-2--2-5------------------|
|---------------------------------------------------------------|
|---------------------------------------------------------------|

|-.---.---.---.---.---.-----------------------------------------|
|-5---5---5---5---5------------------------5v-------------------|
|-2---2---2---2---0---------------------------------------------|
|---------------------4----2--/2--------------------------------|
|---------------------------------0-----------------------------|
|-------------------------------------3---0---------------------|

At 2:21
|-0-3-0---0--------------------------|
|-------3---3-0-3-0------------------|
|-------------------2-4-2-----0~-----|
|-------------------------2-0-2~-----|
|------------------------------------|
|------------------------------------|

Ending
|-12v~-\--------------------------------------------10--12~----------|
|-12v~-\-------------------------------------------------------------|
|-12v~-\-----------------------12--11--9--11--9--12------------------|
|--------------------------------------------------------------------|
|--------------------------------------------------------------------|
|--------------------------------------------------------------------|

Hope this helps!





Comments


Popular Jace Everett tabs & chords
Bad Things Bass Tabs
Bad Things Chords
Damned If I Do Chords
Half Of My Mistakes Chords
Bad Things 1 Tabs
Bad Things 3 Tabs
Bad Things 6 Tabs
Bad Things Ukulele
Damned If I Do Ukulele
The Other Kind Ukulele


Song lyrics



↑ Back to top | Tablatures and chords are parodies/interpretations of the original songs. You may use it for private study, scholarship, research or language learning purposes only
© 2014 AZChords.com Contact us | Privacy policy | DMCA | Add/correct tabs | Request tabs | Top 50 tabs