» » »

Jace Everett, Bad Things Bass tabs (ver.2)

Artists:  A B C D E F G H I J K L M N O P Q R S T U V W X Y Z # 

Bad Things Bass tabs (ver.2)

Jace Everett Tabs
Rating:
4/5 (2 votes)
Bad Things lessons Tabs too difficult? Try these video lessons and learn fast
                Intro

G--------------------|----------------------|--------------------|----------------------|
D--------------------|----------------------|--------------------|----------------------|
A--------------------|----------------------|--------------------|----------------------|
E--------------------|----------------------|5~~~----7~~~--------|7~~~------------------|
B--------------------|----------------------|----5~~~-----5~~~~~~|----5~~~~~~-----------|

Verse (x2)

G--------------------|----------------------|--------------------|----------------------|
D--------------------|----------------------|--------------------|----------------------|
A-----------6-9-6-7--|----------------------|-----------6-9-6-7--|----------------------|
E-----7---7----------|-----7-8-7-----7-8-7--|-----7---7----------|-----7-8-7-----7-8-7--|
B-5-8---8------------|-8---------5-8--------|-5-8---8------------|-8---------5-8--------|

Chorus

G----------------------------|----------------------------|----------------------------|
D----------------------------|----------------------------|----------------------------|
A-----7--------------9-------|-7--------------------------|----------------------------|
E-5-8--8-----7--7-10---10----|---8-7--------7-8-7-5-------|-----7-8-7------7-8-7-------|
B--------5-8--8--------------|-------8-5-8----------8-7---|-5-8--------5-8-------------|

Solo

G-----------------------------|----------------------------------|
D-----------------------------|-------9-----------9--------------|
A------7-----------------9----|-7--10---10--7--10---10-----------|
E--5-8---8-----7---7--10---10-|------------------------7-5-------|
B----------5-8---8------------|----------------------------8-7-5-|

G----------------------------|
D----------------------------|
A----------------------------|
E-----7-8-7------7-8-7-------|
B-5-8--------5-8-------5~~~~-|

Interlude

G----------------------------|-9-11-12-16-12-14-11-12~~~~-|----------------------------|
D----------------------------|----------------------------|-10-9-7---------------------|
A----------------------------|----------------------------|--------10-9-7-9------------|
E----------------------------|----------------------------|----------------------------|
B----------------------------|----------------------------|----------------------------|

Chorus 2

G----------------------------|----------------------------|----------------------------|
D----------------------------|----------------------------|----------------------------|
A-----7--------------9-------|-7--------------------------|----------------------------|
E-5-8--8-----7--7-10---10----|---8-7--------7-8-7-5-------|-----7-8-7------7-8-7-------|
B--------5-8--8--------------|-------8-5-8----------8-7---|-5-8--------5-8-------------|

G-------------------|----------------------|
D-------------------|----------------------|
A-------------------|----------------------|
E------7-8-7-5------|-----7-8-7------7-8-7-|
B-5-8----------8-7--|-5-8--------5-8-------|

Solo 2 (Played an octave higher but this sounds better in my opinion)

G-------------------|----------------------|-------------------|----------------------|
D-------------------|----------------------|-------------------|----------------------|
A-------------------|----------------------|-------------------|----------------------|
E------7-8-7-5------|-----7-8-7------7-8-7-|------7-8-7-5------|-----7-8-7------7-8-7-|
B-5-8----------8-7--|-5-8--------5-8-------|-5-8----------8-7--|-5-8--------5-8-------|

Final Chorus

G----------------------------|----------------------------|----------------------------|
D----------------------------|----------------------------|----------------------------|
A-----7--------------9-------|-7--------------------------|----------------------------|
E-5-8--8-----7--7-10---10----|---8-7--------7-8-7-5-------|-----7-8-7------7-8-7-------|
B--------5-8--8--------------|-------8-5-8----------8-7---|-5-8--------5-8-------------|

G-------------------|----------------------|
D-------------------|----------------------|
A-------------------|----------------------|
E------7-8-7-5------|-----7-8-7------------|
B-5-8----------8-7--|-5-8--------5-8-5~~~~~|
            

comments powered by Disqus
↑ Back to top | Jace Everett Bass for Bad Things. Lyrics for acoustic guitar and electric guitar. Tablatures and chords are parodies/interpretations of the original songs. You may use it for private study, scholarship, research or language learning purposes only