» » »

I Set My Friends On Fire, Wtfwjd Tabs (ver.1)

Artists:  A B C D E F G H I J K L M N O P Q R S T U V W X Y Z # 

Wtfwjd Tabs (ver.1)

I Set My Friends On Fire Tabs
 Rating:
3.8/5 (5 votes)
Wtfwjd lessons Tabs too difficult? Try these video lessons and learn fast
1
                -------------------------------------------------------------------------------
                             wtfwjd - ismfof      
-------------------------------------------------------------------------------
Tuning: Drop c

intro
e|----0-3p0-0-0-00000-----0-3p0-0-0-00000------------------------------------|
B|-0h4------4-4-44444--0h4------4-4-45555------------------------------------|
G|---------------------------------------------------------------------------|
D|---------------------------------------------------------------------------|
A|---------------------------------------------------------------------------|
E|---------------------------------------------------------------------------|

intro pt 2
e|--------------------000----------------------------------------------------|
B|--------------------444----------------------------------------------------|
G|---------------------------------------------------------------------------|
D|-2-0-2--2-2-0-2|--|--------------------------------------------------------|
A|-2-0-2--2-2-0-2|X2|--------------------------------------------------------|
E|-2-0-2--2-2-0-2|--|--------------------------------------------------------|

play intro

pre chorus
e|---------------------------------------------------------------------------|
B|---------------------------------------------------------------------------|
G|-16-16-16-16-16-16-16-16-14-14-14-14-12-12-12-12---------------------------|
D|-x--x--x--x--x--x--x--x--x--x--x--x--x--x--x--x----------------------------|
A|-14-14-14-14-14-14-14-14-12-12-12-12-10-10-10-10---------------------------|
E|---------------------------------------------------------------------------|

chorus lead
e|---------------------------------------------------------------------------|
B|---------------------------------------------------------------------------|
G|-19-19-19-16-16-16-16-16-19-19-19-16-16-16-16-16-14h16-16-16-16-16-16-16---|
D|---------------------------------------------------------------------------|
A|---------------------------------------------------------------------------|
E|---------------------------------------------------------------------------|

chorus rythm (figure strum yourself)
e|---------------------------------------------------------------------------|
B|---------------------------------------------------------------------------|
G|-------5--2----------------------------------------------------------------|
D|-2--5--5--2----------------------------------------------------------------|
A|-2--5--3--0----------------------------------------------------------------|
E|-2--5----------------------------------------------------------------------|

pre verse
e|---------------------------------------------------------------------------|
B|---------------------------------------------------------------------------|
G|---------------------------------------------------------------------------|
D|---------------------------------------------------------------------------|
A|-2-2-2-2-2-2-2-222-2-2-2-2-2-2-2-------------------------------------------|
E|-2-2-2-2-2-2-2-222-2-2-2-2-2-2-2-------------------------------------------|
   . . . . . . . ... . . . . . . .

something goes on here but i dont know it

bridge - mess around with palm mutes of open c power chord

bridge pt 2
e|---------------------------------------------------------------------------|
B|---------------------------------------------------------------------------|
G|-15-15-15-15-15-15-15-15-15-15-15-15-15-15-15-15-12-12-12-12-12-12---------|
D|-x--x--x--x--x--x--x--x--x--x--x--x--x--x--x--x--x--x--x--x--x--x----------|
A|-13-13-13-13-13-13-13-13-13-13-13-13-13-13-13-13-10-10-10-10-10-10---------|
E|---------------------------------------------------------------------------|

e|---------------------------------------------------------------------------|
B|---------------------------------------------------------------------------|
G|-1010101014-14-14-14-------------------------------------------------------|
D|-x-x-x-x-x--x--x--x--------------------------------------------------------|
A|-8-8-8-8-12-12-12-12-------7-------------------7---------------------------|
E|---------------------0-7h8---8p7-000-000-000-8---8-------------------------|
                                   ... ... ...

OUTRO (figure strum yourself)
e|---------------------------------------------------------------------------|
B|---------------------------------------------------------------------------|
G|---------------------------------------------------------------------------|
D|-8--5--3/7-0---------------------------------------------------------------|
A|-8--5--3/7-0---------------------------------------------------------------|
E|-8--5--3/7-0---------------------------------------------------------------|

END


| /  slide up
| \  slide down
| h  hammer-on
| p  pull-off
| ~  vibrato
| +  harmonic
| x  Mute note
===============================================================================
            
Submit corrections

comments powered by Disqus
↑ Back to top | I Set My Friends On Fire Tabs for Wtfwjd. Lyrics for acoustic guitar and electric guitar. 1 Tablatures and chords are parodies/interpretations of the original songs. You may use it for private study, scholarship, research or language learning purposes only