» » »

I Set My Friends On Fire, Wtfwjd Bass tabs (ver.1)

Artists:  A B C D E F G H I J K L M N O P Q R S T U V W X Y Z # 

Wtfwjd Bass tabs (ver.1)

I Set My Friends On Fire Tabs
 Rating:
3.3/5 (6 votes)
Wtfwjd lessons Tabs too difficult? Try these video lessons and learn fast
                Album:		You Can't Spell Slaughter Without Laughter
Instrument:	Bass

...feel what reaches back!

F|---------------------------------------------|
C|---------------------------------------------|
G|---------------------------------------1-1-1-|
C|--14/-2-0-22-0-2----14/-2-0-22-02-0-0--------|

I stopped subscribing...

F|------------------------|
C|------------------------|
G|----------------2-2-1-2-|
C|--22--22-2-2--2---------|

...every f**king month!

F|-------------------|
C|-------------------|
G|-------------------|
C|--2-(volume swell)-

Don't get the octopus upset...

F|----------------------------------------|
C|----------------------------------------|
G|--------------------3>>>>>>>-0>>>>>>>---|
C|--2>>>>>>>-5>>>>>>>---------------------|

I'm only resting my eyes...

F|--------------------------------------|
C|--------------------------------------|
G|--3-3-3---0-0-0-0--3-3-3---0-0-0------|
C|---------------------------------5--2-|

I didn't think that air could scream...

F|-----0--4------0-4---2--0-----7>>>>>>>--|
C|--2--------2>>-------------2------------|
G|----------------------------------------|
C|----------------------------------------|

...approached me... don't walk any closer...

F|--7>>-0>>>>-7>>-0>>>>--4>>>>>>>>>>>>>>>-|
C|----------------------------------------|
G|----------------------------------------|
C|----------------------------------------|

I forgot who you were...

F|--4>>>-2>>>-0>>>>>>>>>>>-|
C|-------------------------|
G|-------------------------|
C|-------------------------|

Game ov-er...

F|---------------------|
C|---------------------|
G|---------------------|
C|--0>>-0-0-0---0--0>--|

...come to class fully prepared...

F|---------------------------------------|
C|---------------------------------------|
G|--1>>>>>>>>>>>>>>>--------------0>>>---|
C|------------------5>>>>>>>-3>>>------0-|

I spy, you spy...

F|------------------|
C|------------------|
G|------------------|
C|--0---0-----0---0-|

Dragging the moisture from the air...

F|---------------------------------------|
C|---------------------------------------|
G|--1>>>>>>>>>>>>>>>--------------0>>>---|
C|------------------5>>>>>>>-3>>>------0-|
            
Submit corrections

comments powered by Disqus
↑ Back to top | I Set My Friends On Fire Bass for Wtfwjd. Lyrics for acoustic guitar and electric guitar. Tablatures and chords are parodies/interpretations of the original songs. You may use it for private study, scholarship, research or language learning purposes only