» » »

I Set My Friends On Fire, Wtfwjd Tabs (ver.3)

Artists:  A B C D E F G H I J K L M N O P Q R S T U V W X Y Z # 

Wtfwjd Tabs (ver.3)

I Set My Friends On Fire Tabs
 Rating:
4/5 (5 votes)
Wtfwjd lessons Tabs too difficult? Try these video lessons and learn fast
                WTFWJD
As played by I Set My Friends On Fire

Tuning CGCFAD
Lead guitar only
Only no clean solo yet


Main Intro Riff:

|-----------------------|
|-----5---8p5-5-5-55555-|
|-5h8---8-----8-8-88888-|
|-----------------------|
|-----------------------|
|-----------------------|

|------------------------|
|-----5---8p5-5-5-55-555-|
|-5h8---8-----8-8-88/999-|
|------------------------|
|------------------------|
|------------------------|

Heavy Riff Thing:

|----------------------------------------------|
|----------------------------------------------|
|----------------------------------------------|
|-2-0-2--0-2--2-0-2--0-2--0-0--2-2-2-----------|
|-2-0-2--0-2--2-0-2--0-2--0-0--2-2-2-----------|
|-2-0-2--0-2--2-0-2--0-2--0-0--2-2-2-----------|
pm                        * *

Back to Main Intro Riff then

Pre-1st Chorus Thing

|-----------------------|
|-----------------------|
|-16----/14-----/12-----|
|-x-(x8)-x--(x4)-x—(x4)-|
|-14----/12-----/10-----|
|-----------------------|



1st Chorus Riff:

|-------------------|
|-------------------|
|-19-19-19-16-16-16-| (x2) <--------------- x3 
|-------------------|                       |
|-------------------|                       |
|-------------------|                       |
                                                        |
                                            v
|-------------------------------------------------|
|-------------------------------------------------|
|-14h16-16-16-16-16-16-16-16-14-14-14-14-14-14-14-|
|-------------------------------------------------|
|-------------------------------------------------|
|-------------------------------------------------|

Then the 19-16 riff twice again

Then

|-------------------------------------------------|
|-------------------------------------------------|
|-14h16-16-16-16-16-16-16-16p14-14-14-14-14-14-14-| (x2)
|-------------------------------------------------|
|-------------------------------------------------|
|-------------------------------------------------|

End on

|-----|
|-----|
|-12v-|
|-----|
|-----|
|-----|

Rhythm plays right after 12 (is possible for lead to play): 

|-----------------------------------|
|-----------------------------------|
|-----------------------------------|
|-----------------------------------|
|-----------------------------------|
|-2-2-2-2-2-2-2-22-2-2-2-2-2-2-2-22-|
pm* * * * * * * ** * * * * * * * **


Clean Delay Solo Here
(not tabbed yet)

Then Play

|------------------------|
|------------------------|
|------------------------| (x2)
|-0000-0-0-0------0-0-0--|
|-0000-0-0-0------0-0-0--|
|-0000-0-0-0------0-0-0--|
pm**** * * *      * * *

|------------------------|
|------------------------|
|------------------------|
|-0000-0-0-0------0-0-0--|
|-0000-0-0-0------0-0-0--|
|-0000-0-0-0------0-0-0--|
pm**** * *        * * *

|-------------------------|
|-------------------------|
|-------------------------| 
|-0000-0-0-0-----0-0-0-0--|
|-0000-0-0-0-----0-0-0-0--|
|-0000-0-0-0-----0-0-0-0--|
pm**** * * *     * * * 

Then play these chords (listen to song for rhythm)

|--------------|
|--------------|
|-14-12-10-/14-|
|-x--x--x---x--|
|-12-10-8--/12-|
|--------------|

|---------------------------|
|---------------------------|
|---------------------------| (x2)
|---------------------------|
|-------7---------------7---|
|-0-7-8---8-7-0-0-000-8---8-|
pm                ***




               End riff on
|--------------|---------|
|--------------|---------|
|-14-12-10-/14-|-14-x-14-|
|-x--x--x---x--|-x--x-x--|
|-12-10-8--/12-|-12-x-12-|
|--------------|---------|

|---------------------------|
|---------------------------|
|---------------------------| (x2)
|---------------------------|
|-------7---------------7---|
|-0-7-8---8-7-0-0-000-8---8-|
pm                ***

Then play these chords until fade out (should be twice)
Listen to song for rhythm

|-------------|
|-------------|
|-------------|
|-7-5-3-3/7-0-|
|-7-5-3-3/7-0-|
|-7-5-3-3/7-0-|
            
Submit corrections

comments powered by Disqus
↑ Back to top | I Set My Friends On Fire Tabs for Wtfwjd. Lyrics for acoustic guitar and electric guitar. Tablatures and chords are parodies/interpretations of the original songs. You may use it for private study, scholarship, research or language learning purposes only