» » »

I See Stars, Project Wakeup Tabs (ver.2)

Artists:  A B C D E F G H I J K L M N O P Q R S T U V W X Y Z # 

Project Wakeup Tabs (ver.2)

I See Stars Tabs
 Rating:
4/5 (7 votes)
Project Wakeup lessons Tabs too difficult? Try these video lessons and learn fast
                This is my first tab. so please comment for corrections!
its good to me!
Stay Brutal!!!

(:00-:05)
e|-------------------------------|
B|-------------------------------|
G|-------------------------------|
D|--3~-3------66----1~-1---------|
A|--3~-3-(x6)-66----1~-1-(x6)----|
D|--3~-3------66----1~-1---------|

(:06-:11)
E|----------------------------|
B|----------------------------|
G|----------------------------|
D|--3----------66--1----------|
A|--3-333-(x6)-66--1-111-(x6)-|
D|--3-333------66--1-111------|
	***		   ***

(:12-:17)
e|-------------------------------|
B|-------------------------------|
G|-------------------------------|
D|--3~-3------66----1~-1---------|
A|--3~-3-(x6)-66----1~-1-(x6)----|
D|--3~-3------66----1~-1---------|

(:18-:22)
e|----------------------------|
B|----------------------------|
G|----------------------------|
D|--3----------66--1----------|
A|--3-333-(x6)-66--1-111-(x6)-|
D|--3-333------66--1-111------|
	***		   ***

(:26-:35)
e|-----------------|----------------------------------|
B|-----------------|----------------------------------|
G|-----------------|----------------------------------| 
D|--33--66--1------|--33--66--11----------------------|  (x4)
A|--33--66--1-(x6)-|--33--66--11--(Ones Not Elevens)--|
D|--33--66--1------|--33--66--11----------------------|
			On the 4th time stop the notes from ringing

(:37-:59)
I have no idea about this part!
Sorry!

(1:00-1:10)
e|---------------------|
B|---------------------|
G|---------------------|
D|--3~---5\6--1~---6/5-|  (x2)
A|--3~---5\6--1~---6/5-|
D|--3~---5\6--1~---6/5-|



Guitar I
(1:11-1:28)
e|-------------------------------------|
B|--5p0-7p0-8p0-7p0-10p0-7p0-8p0-12p0--|
G|-------------------------------------|
D|-------------------------------------|  (x6)
A|-------------------------------------|
D|-------------------------------------|

Guitar II 
(1:16-1:27)
e|--------------------------|
B|--------------------------|
G|--------------------------|
D|--------------------------| (x2) Figure Out Strumming
A|--3---5---6---1---6---5---|
D|--3---5---6---1---6---5---|
    *   *   *   *   *   *   

(1:28-1:39)
e|--------------------------|
B|--------------------------|
G|--------------------------|
D|--3---5---6---1---6---5---| (x2) Figure Out Strumming
A|--3---5---6---1---6---5---|
D|--3---5---6---1---6---5---|

(1:42-1:53)
e|-----------------|-----------------------------------|
B|-----------------|-----------------------------------|
G|-----------------|-----------------------------------| 
D|--33--66--1------|--33--66--11~----------------------|  (x4)
A|--33--66--1-(x6)-|--33--66--11~-(Ones Not Elevens)---|
D|--33--66--1------|--33--66--11~----------------------|
								
Breakdown
Guitar I
(1:54-End)
e|----------------------------------------|
B|----------------------------------------|
G|----------------------------------------|
D|----------------------------------------| Repeat Until End
A|--333333--333333--333333---6666---1-1-1-|
D|--333333--333333--333333---6666---1-1-1-|
    ******  ******  ******   ****   * * *

Guitar II
(2:08-End)
e|---------------------|
B|---------------------|
G|--17-/-15-/-13-\-15--|
D|--x----x----x----x---| Repeat Until End
A|--15-/-13-/-11-\-13--|
D|---------------------|
            
Submit corrections

comments powered by Disqus
↑ Back to top | I See Stars Tabs for Project Wakeup. Lyrics for acoustic guitar and electric guitar. Tablatures and chords are parodies/interpretations of the original songs. You may use it for private study, scholarship, research or language learning purposes only