» » »

I See Stars, Project Wakeup Tabs (ver.1)

Artists:  A B C D E F G H I J K L M N O P Q R S T U V W X Y Z # 

Project Wakeup Tabs (ver.1)

I See Stars Tabs
 Rating:
3/5 (6 votes)
Project Wakeup lessons Tabs too difficult? Try these video lessons and learn fast
1
                I See Stars - Project Wakeup
Tuning: Drop D

Watch my cover!
comment, rate, subscribe!

Intro/verse 1:
e|-7h10-10-12-12-12--7h10/12-------------------------------------------|
B|--------------------------10-10-10-----------------------------------|
G|-----------------------------------9-9-------------------------------| 2x
D|----------------------------------------2-2-2-2---5-5-5-5---0-0-0-0-0|
A|----------------------------------------2-2-2-2---5-5-5-5---0-0-0-0-0|
D|----------------------------------------2-2-2-2---5-5-5-5---0-0-0-0-0|
                                                              . . . . .
Chorus:
e|---------------------------10p0-       e|-------------|
B|-5-5-5-7-7-7-8-8-8-7-7-7-7------       B|-5-5-7-7--8~-|
G|--------------------------------       G|-------------|
D|-------------------------------- 4x    D|-------------|
A|--------------------------------       A|-------------|
D|--------------------------------       D|-------------|


Verse 2:
e|-----------|-------------------|
B|-----7h8p7-|----------7h8h7----|
G|-7h9-------|--7h9-7h9----------|15x
D|-----------|-------------------|
A|-----------|-------------------|
D|-----------|-------------------|

e|----------------------19t--20t--22t-|
B|------------------------------------|
G|------------------------------------|
D|-2--4-5-0--5-4-2--4-5---------------|
A|-2--4-5-0--5-4-2--4-5---------------|
D|-2--4-5-0--5-4-2--4-5---------------|


Solo (I guess):
e-12p0-------------------------------12p0--------------------------------|
B-----12p0-10h12p0-8h10p0-7p0-7h8--------12p0-10h12p0-8h10p0-7p0-7h8/12--|
G--------------------------------9---------------------------------------|
D------------------------------------------------------------------------|
A------------------------------------------------------------------------|
D------------------------------------------------------------------------|

e|-12p0-10p0-8p0-8h10p8----------------|
B|----------------------12p0-10p0-12p0-|
G|-------------------------------------| 4x
D|-------------------------------------|
A|-------------------------------------|
D|-------------------------------------|

(You don't have to do tremolo picking here, but it's what I do)
e|-12t--14t--15t--14t--15t--17t--15t--14t--|       e|-19t--20t--22t--|
B|-----------------------------------------|       B|----------------|
G|-----------------------------------------| 3x    G|----------------|
D|-----------------------------------------|       D|----------------|
A|-----------------------------------------|       A|----------------|
D|-----------------------------------------|       D|----------------|


Chorus:
e|---------------------------10p0-       e|-------------|
B|-5-5-5-7-7-7-8-8-8-7-7-7-7------       B|-5-5-7-7--8~-|
G|--------------------------------       G|-------------|
D|-------------------------------- 4x    D|-------------|
A|--------------------------------       A|-------------|
D|--------------------------------       D|-------------|


Breakdown:
e|-----------------------------------------------------------|
B|-----------------------------------------------------------|
G|-----------------------------------------------------------|
D|-2-2-2-2-2-2---2-2-2-2-2-2---2-2-2-2-2-2---5-5-5-5-0-0-0---| 2x
A|-2-2-2-2-2-2---2-2-2-2-2-2---2-2-2-2-2-2---5-5-5-5-0-0-0---|
D|-2-2-2-2-2-2---2-2-2-2-2-2---2-2-2-2-2-2---5-5-5-5-0-0-0---|
                                                     . . .


Outro:
e|---------------------------------------------------------------------|
B|---------------------------------------------------------------------|
G|-16-16-16-16-16\14-14-14-14-14\12-12-12\11-11-11/12-12-12---11-11-11-| 2x
D|--x--x--x--x--x--x--x--x--x--x--x--x--x-x--x--x--x--x--x----x--x--x--|
A|-14-14-14-14-14\12-12-12-12-12\10-10-10\9--9--9-/10-10-10---9--9--9--|
D|---------------------------------------------------------------------|

Watch my cover!
comment, rate, subscribe!
            
Submit corrections

comments powered by Disqus
↑ Back to top | I See Stars Tabs for Project Wakeup. Lyrics for acoustic guitar and electric guitar. 1 Tablatures and chords are parodies/interpretations of the original songs. You may use it for private study, scholarship, research or language learning purposes only