>
 >
Project Wakeup

Project Wakeup Bass Tabs

I See Stars - Project Wakeup chords, tabs, tablatures, lyrics

Guitar lessons | Add/correct | Request | Top 50 tabs Artists:  A B C D E F G H I J K L M N O P Q R S T U V W X Y Z 0-9

Project Wakeup Bass Tabs – I See Stars

CD, Sheet music, Poster

Do you like Project Wakeup? Share with your friends now
Bass TabsTabsTabs v2Tabs v3Tabs v4
I See Stars- Project Wakeup
Tuning: Drop D

Intro
G|--------------------------------------------------------------------|
D|--------------------------------------------------------------------|
A|--------------------------------------------------------------------|
D|-2222222222222555-0-0000000000554-2-22222222222555-0-00000007777755-|

(0:12)
G|--------------------------------------------------------------------|
D|--------------------------------------------------------------------|
A|--------------------------------------------------------------------|
D|-2-2222-555-0-0000-555-2-2222-222-22-555-0-0000-000-00-55422----0/5-|

(0:26)
G|------------------------------------------------------------|
D|------------------------------------------------------------|
A|------------------------------------------------------------|
D|-2224445554445544-2224445554447755-2224445554445544-22-44-5-|

(0:37)
G|--------------------------|
D|--------------------------|
A|--------------------------|
D|-2-4-5-0-5-4-2-4-5-0-0554-|

(0:48)
G|-------7-0---------7-0---------7-0---------7-0---|
D|-------------------------------------------------|
A|-------------------------------------3--3--------|
D|-2-222-----4-0-000-----4-2-222-----4---0-0-----4-|

(1:00)
G|----------------------------------------------------------------------|
D|----------------------------------------------------------------------|
A|----------------------------------------------------------------------|
D|-2222222244455555-0000000055544444-2222222244455555-00000000555544442-|

(1:16)
G|--------------------------------------------------------------------------|
D|--------------------------------------------------------------------------|
A|--------------------------------------------------------------------------|
D|-22-222-222-22454-00-000-000-00545-22-222-222-22454-00-000-000-00545------|

(1:28)
G|-------------------------------------------------------------------------------|
D|-------------------------------------------------------------------------------|
A|-------------------------------------------------------------------------------|
D|-222-222-222-22454-000-000-000-00545-222-222-222-22454-0 (a lot) 555544445555-4|

(1:42)
G|------------------------------------------------------------|
D|------------------------------------------------------------|
A|------------------------------------------------------------|
D|-2224445554445544-2224445554447755-2224445554445544-22-44-5-|

(1:54)
G|------------------------------------|
D|------------------------------------|
A|------------------------------------|
D|-2222222-2222222-2222222-555555-000-|





Comments


Popular I See Stars tabs & chords
3d Tabs
Comfortably Confused Tabs
Glow Tabs
Over It Tabs
Project Wakeup Tabs
The Big Bad Wolf Intro Tabs
The Common Hours Ii Tabs
Underneath Every Smile 1 Tabs
What This Means To Me Tabs
Your Love Tabs


Song lyrics



↑ Back to top | Tablatures and chords are parodies/interpretations of the original songs. You may use it for private study, scholarship, research or language learning purposes only
© 2014 AZChords.com Contact us | Privacy policy | DMCA | Add/correct tabs | Request tabs | Top 50 tabs