» » »

Number Of The Beast Bass tabs (ver.3)

Artists:  A B C D E F G H I J K L M N O P Q R S T U V W X Y Z # 

Number Of The Beast Bass tabs (ver.3)

Iron Maiden
Rating:
0/5 (0 votes)

Hard to play? Try these video lessons and learn fast.
                "Iron Maiden
The Number of the Beast

Standard Tuning

Intro  (0:24)
G----------11----12----14-------14-------14-------14-------14----------11----12-----
D-12-12-12----12----12----12-12----12-12----12-12----12-12----12-12-12----12----12--
A-----------------------------------------------------------------------------------
E-----------------------------------------------------------------------------------

1st Verse  (0:29)
G-14-------14-------14-------14-------14----------11----12-----
D----12-12----12-12----12-12----12-12----12-12-12----12----12-- -
A--------------------------------------------------------------  |
E--------------------------------------------------------------  |
                                                                 |
G-14-------14-------14-------14-------14----------9----10-----   |
D----12-12----12-12----12-12----12-12----10-10-10---10----10--   |
A-------------------------------------------------------------   |
E-------------------------------------------------------------   | 
                                                                 |  X3
G-12-------12-------12-------12-------12----------9----10------  |
D----10-10----10-10----10-10----10-10----10-10-10---10----10---  |
A--------------------------------------------------------------  |
E--------------------------------------------------------------  |
                                                                 |
G-14-------14-------14-------14-------14----------11----12-----  |
D----12-12----12-12----12-12----12-12----12-12-12----12----12--  |
A-------------------------------------------------------------- -
E--------------------------------------------------------------

end of 3rd time play:
G----14-------14---------------
D-12----12-12----0-0-0-0-------
A-------------------------5~~--
E------------------------------

G---------------------------------------------------------
D---------------------------------------------------------
A-5-5-5-5----5~----3-3-3-3----3~----5-5-5-5----5~--5-5-5--
E---------------------------------------------------------

2nd, 3rd and 4th Verses  (1:31, 2:01, 3:43)
G----------------------------------
D----------------------------------  X3
A-5-5-5-5-5-5-5-5-5-5-5-5-5-5-5-5--
E----------------------------------

G---------------------------------
D---------------------------------
A-0-3-3-3-3-2----5-5-5-5-5-5-5-5--
E-------------3-------------------

G----------------------------------
D----------------------------------  X3
A-5-5-5-5-5-5-5-5-5-5-5-5-5-5-5-5--
E----------------------------------

G---------------------------------
D---------------------------------
A-0-3-3-3-3-2----5-5-5-5-5-5-5-5--
E-------------3-------------------

Bass Fill 1 (1:49, 2:14, 4:01)
G-------------------
D-------------------
A-5-5-5-5-5-5-0-3~--
E-------------------

1st Chorus  (1:50)
G-----------------------------------------------
D-----------------------------------------------
A-3-3-3-3-3-3-2~-2-2-2-2-0-2-3~-3-3-3-3-3-0-5~--
E-----------------------------------------------

G-------7-----------------------------------------------------
D---5-7---7---------------------------------------------------
A-5---------0-3~-3-3-3-3-3-3-2~-2-2-2-2-2-2-3~-3-3-3-3-5-5-5--
E-------------------------------------------------------------

G----------------------------------
D----------------------------------
A-5-5-5-5-5-5-5-5-5-5-5-5-5-5-5-5--
E----------------------------------

2nd and 3rd Choruses  (2:20, 4:02)
G----------------------------------------------------7---------
D------------------------------------------------5-7---7-------
A-3-3-3-3-3-3-2~-2-2-2-2-0-2-3~-3-3-3-3-3-0-5~-5---------0-3~--
E--------------------------------------------------------------

G---------------------------------------------
D---------------------------------------------
A-3-3-3-3-3-3-2~-2-2-2-2-2-2-3~-3-3--3-3-3/5--
E---------------------------------------------

Interlude  (2:28)
G----------------------------------------------------------------------
D-----7-----7--------9------9--------10------10------10-----10---------  X3
A-5-5---5-5---5--7-7---7--7---7--8-8----8--8----8-8-----8-8----8-8-8\--
E----------------------------------------------------------------------
let ring.......  ..............  ...................................

G-----------------------------------------------------------------
D-----7-----7--------9------9--------10------10------10-----10----
A-5-5---5-5---5--7-7---7--7---7--8-8----8--8----8-8-----8-8----8--
E-----------------------------------------------------------------
let ring.......  ..............  ...............................

1st Guitar Solo  (2:47)
G------------------------------------------------------------------------------------
D------------------------------------------------------------------------------------  X3
A-1~-1-1-1-1-1-1-1-1-1-1-1-1-1--1------------------------------------------------1~--
E----------------------------------1~--1--1--1--1--1--1--1--1--0--1--0--1--0--1------

G------------------------------------------------------------------
D------------------------------------------------------------------
A-1~-1-1-1-1-1-1-1-1-1-1-1-1-1--1-------------------------5-5-5-3--
E---------------------------------1~-1-1-1-1-1-1-1-1-0-1-----------

(3:06)
G-----7---5----------------------------3---1-------------------------
D-5/7---7---7-5---5----------------2/3---3---3-1---1-----------------
A---------------7---7-6-5-3-3-3-1----------------3---3-2-1-----------
E----------------------------------------------------------3-3-3-1~--

G--------------------------------------------------------------
D--------------------------------------------------------------
A-------------------------------------------0~-0-0-0-3-3-3-5~--
E-1-1-1-1-1-1-1-1-1-1-1-1-1-1-3~3-3-3-3-3-3--------------------

2nd Guitar Solo  (3:16)
G-------7--------------------------------------------10-----12-------
D---4-7---7-X------7---8-7----------9----10-X-X-8~-8----10~----X-----  X3
A-5-----------8~-8---8-----X-10~-10---10-------------------------5~--
E--------------------------------------------------------------------

G-------5------------------------------------------------10--
D---4-5---5--------7---8-7----------9----10--8~-8-X-8/10-----
A-5---------7-8~-8---8-----8-10~-10---10---------------------
E------------------------------------------------------------

(3:34)
G-19~-19-19-19-19-17-------------------------12~-12-12-12-12-------15~--
D--------------------X-15~-15-15-15-15-14-12-----------------12-12/-----
A-----------------------------------------------------------------------
E-----------------------------------------------------------------------

G----15----17----17-19~--
D-15----15----17---------
A------------------------
E------------------------

G-19~-19-19-19-19-17-------------------------12~-12-12-12-12-------15~--
D--------------------X-15~-15-15-15-15-14-12-----------------12-12/-----
A-----------------------------------------------------------------------
E-----------------------------------------------------------------------

G----15----17---------
D-15----15----17\-----
A------------------5--
E---------------------

(4:09)
After first 4 measures of 3rd Chorus
G--------------------------------------------------------------------
D------------------4---5----7-----7-----7-----7-----7-------4---5----
A-3~-3-3-3-3-5-5-5---5---5----5-5---5-5---5-5---5-5---5-5-5---5---5--
E--------------------------------------------------------------------

5th Verse  (4:14)
G------------------------------------------
D-7-----7-----7-----7-----7-------4---5----
A---5-5---5-5---5-5---5-5---5-5-5---5---5--
E------------------------------------------

G------------------------------------------
D-7-----7-----7-----7-----7-------2---3----
A---5-5---5-5---5-5---5-5---3-3-3---3---3--
E------------------------------------------

G------------------------------------------
D-5-----5-----5-----5-----5-------2---3----
A---3-3---3-3---3-3---3-3---3-3-3---3---3--
E------------------------------------------

G------------------------------------------
D-7-----7-----7-----7-----7-------4---5----
A---5-5---5-5---5-5---5-5---5-5-5---5---5--
E------------------------------------------

G------------------------------------------
D-7-----7-----7-----7-----7-------4---5----
A---5-5---5-5---5-5---5-5---5-5-5---5---5--
E------------------------------------------

G------------------------------------------
D-7-----7-----7-----7-----7-------2---3----
A---5-5---5-5---5-5---5-5---3-3-3---3---3--
E------------------------------------------

G------------------------------------------
D-5-----5-----5-----5-----5-------2---3----
A---3-3---3-3---3-3---3-3---3-3-3---3---3--
E------------------------------------------

G----------------------------------------------------------
D-7-----7-----7-----7-----7--------------------------------
A---5-5---5-5---5-5---5-5---5-5-5-5--5~~----5-5-5-5----5~--
E----------------------------------------------------------

G---------------------------------------
D---------------------------------------
A-3-3-3-3----3~----5-5-5-5----5--3-5~\--
E---------------------------------------

Thats it, Enjoy!
GW Dec. 2003
Please rate this tab, Thanks.
"            
Hard to play? Try these video lessons and learn fast. | Correct




comments powered by Disqus
↑ Back to top | Tablatures and chords are parodies/interpretations of the original songs. You may use it for private study, scholarship, research or language learning purposes only