» » »

Iron Maiden, Number Of The Beast Bass tabs (ver.2)

Artists:  A B C D E F G H I J K L M N O P Q R S T U V W X Y Z # 

Number Of The Beast Bass tabs (ver.2)

Iron Maiden Tabs
 Rating:
4/5 (4 votes)
Number Of The Beast lessons Tabs too difficult? Try these video lessons and learn fast
1
                "IRON MAIDEN

The Number of the Beast

Intro

     G-------11-11-12-12-14-------14-------14-------14-------14---
(x3) D-12-12----------------12-12----12-12----12-12----12-12------
     A------------------------------------------------------------
     E------------------------------------------------------------

     G-------9-9-10-10-12-------12-------12-------12-------12-----
(x1) D-10-10--------------10-10----10-10----10-10----10-10--------
     A------------------------------------------------------------
     E------------------------------------------------------------

Play everything up here for 4 times and than

G-------11-11-12-12-14-------14-------14-------14-------14---
D-12-12----------------12-12----12-12----12-12----12-12------
A------------------------------------------------------------
E------------------------------------------------------------

G------------------------------------------------------------
D------------------------------------------------------------
A-5-5-5-5-5^----5-5-5-5-5^----3-3-3-3-3^----5-5-5-5-5^-------
E------------------------------------------------------------

" ^ " means that you must hold the sound



Verse

      G-----------------
(x12) D-----------------
      A-5-5-5-5-5-5-5-5-
      E-----------------

      G------------------------------
(x1)  D------------------------------
      A-3-3-3-3-3-2-0-5--5-5-5-5-5-5-
      E------------------------------

Play everything up here for 2 times



666

G---------------------------------7-----------------------------
D-----------------------------5-7---7-5-------------------------
A-3-3-333---------3-3-333-5-5-----------3-3-333---------3-3-333-
E---------3-3-333-------------------------------3-3-333---------

     "2nd part"
     G-----------------
(x4) D-----------------
     A-5-5-5-5-5-5-5-5-
     E-----------------



Pre solo

     G---------------------------------------------
(x4) D---7^--7^----9^--9^----10^--10^--10^-10^-10^-
     A-5^--5^----7^--7^----8^---8^---8^--8^--8^----
     E---------------------------------------------

     G---------------------------------
(x4) D---------------------------------
     A-1-1-11111111111-----------------
     E-----------------1-1-11111111111-



Solo

G-------------------------------------------
D---------------12----10--------------------
A------------12----12----12-10--------------
E-10-10-10-8--------------------12-10-8-----

G-------------------------------
D-----------8---6---------------
A---------8---8---8-6-----------
E-8-8-8-6--------------8-6-4----



Post solo

G-----------------------------------------
D-----------------------------------------
A-----------------------------------333-5-
E-3-3-3-1-1-111-1-1-111-3-3-333-555-------

     G-------7---------2---3-2-------4---5-4---333-555---
(x4) D---5-7---7-5-3-3---3-----3-5-5---5-----5-----------
     A-5-----------------------------------------------5-
     E---------------------------------------------------
the fourth time you play it don't do the final 5 but start with the
next riff

     G-19-19-19-19-19-15-------------------------
(x2) D-------------------17-15-15-15-15-15-14-12-
     A-------------------------------------------
     E-------------------------------------------

      ----------------------15-15-15-17-15-17----
      -17-17-17-17-17-15-14----------------------
      -------------------------------------------
      -------------------------------------------



Final

     G-------------------------------------
(x3) D-----4-5-7-----7-----7-----7-----7---
     A-5-5-------5-5---5-5---5-5---5-5-----
     E-------------------------------------

     G-------------------------------------
(x1) D-----2-3-5^----5^----5^----5^----5^--
     A-3-3---------------------------------
     E-------------------------------------

Play everything up here for 2 times and than do

G-------------------------------------
D-----4-5-7-----7-----7-----7-----7---
A-5-5-------5-5---5-5---5-5---5-5-----
E-------------------------------------

G------------------------------------------------------------
D------------------------------------------------------------
A-5-5-5-5-5^----5-5-5-5-5^----3-3-3-3-3^----5-5-5-5-5^-------
E------------------------------------------------------------





Structure

Intro
Verse
666
Verse
666 (but this time without the "2nd part")
Pre solo
Solo
Post solo
Verse
666 (but this time without the "2nd part")
Final
"            
Submit corrections

comments powered by Disqus
↑ Back to top | Iron Maiden Bass for Number Of The Beast. Lyrics for acoustic guitar and electric guitar. 1 Tablatures and chords are parodies/interpretations of the original songs. You may use it for private study, scholarship, research or language learning purposes only