» » »

Out Of The Silent Planet Bass tabs (ver.2)

Artists:  A B C D E F G H I J K L M N O P Q R S T U V W X Y Z # 

Out Of The Silent Planet Bass tabs (ver.2)

Iron Maiden
Rating:
0/5 (0 votes)

Hard to play? Try these video lessons and learn fast.
                Out of the Silent Planet by Iron Maiden
Album:Brave New World(2000)

All notes refer to section above it.

[Intro]

G=-------------------------------------------------|
D=-------------------------------------------------|
A=-77777-77777-77777-77777-77777-77777-77777-77777-|
E=-------------------------------------------------|
Moderate speed
[Verse] "Withered hands, withered bodies..."

G=------------------------------------|
D=------------------------------------|
A=--------333333-555555-5-5-5---------|
E=-000000---------------------0-3-2---|

G=------------------------------------|
D=------------------------------------|
A=--------333333-000000-0-0-0---------|
E=-000000---------------------0-3-2---|

G=------------------------------------|
D=------------------------------------|
A=--------333333-555555-5-5-5---------|
E=-000000---------------------0-3-2---|

G=----------------------------|
D=----------------------------|
A=--------333333-555555-5-5-5-|
E=-000000---------------------|

G=----------------------------|
D=----------------------------|
A=-000000-333333--------------|
E=--------------0000000-0-0-0-|

G=--------------------------|
D=--------------------------|
A=-000000-333333-5555-5-5-5-|
E=--------------------------|

[Chorus] "Out of the silent planet..."

G=--------------------------------------|
D=--------------------------------------|  X4
A=---------33333333----------55555555---|
E=00000000----------33333333------------|
Fast, stress note on beat

[Verse] "Killing fields, the grinding wheel..."

G=------------------------------------|
D=------------------------------------|
A=--------333333-555555-5-5-5---------|
E=-000000---------------------0-3-2---|

G=------------------------------------|
D=------------------------------------|
A=--------333333-000000-0-0-0---------|
E=-000000---------------------0-3-2---|

G=------------------------------------|
D=------------------------------------|
A=--------333333-555555-5-5-5---------|
E=-000000---------------------0-3-2---|

G=----------------------------|
D=----------------------------|
A=--------333333-555555-5-5-5-|
E=-000000---------------------|

G=----------------------------|
D=----------------------------|
A=-000000-333333--------------|
E=--------------0000000-0-0-0-|

G=--------------------------|
D=--------------------------|
A=-000000-333333-5555-5-5-5-|
E=--------------------------|

[Chorus] "Out of the silent planet..."

G=--------------------------------------|
D=--------------------------------------|  X8
A=---------33333333----------55555555---|
E=00000000----------33333333------------|
Speed slightly up towards Interlude
Use fingerstyle for better emphasis
[Interlude]

G=------------------------------------------------|
D=------------------------------------------------|
A=--------------------------------------------3-0-|
E=-0----5-3----0----5-3----0----5-3----0----5-----|

G=----------------------------------------------|
D=----------------------------------------------|
A=--33333-55555--------33333-55555--------3-5---|
E=--------------333333--------------3333--------|
Slowly

[Chorus] "Out of the silent planet..."

G=--------------------------------------|
D=--------------------------------------|  X8
A=---------33333333----------55555555---|
E=00000000----------33333333------------|

[End]

G=---------------------------------------------------------|
D=---------------------------------------------------------|
A=--------33-333--------55-555--------33-333--------55-555-|
E=-00-000--------33-333--------00-000--------33-333--------|

One of Maiden's finest. It should be almost all there,
if not just figure out the incorrect riffs for yourself.

UP THE IRONS!
            
Hard to play? Try these video lessons and learn fast. | Correct




comments powered by Disqus
↑ Back to top | Tablatures and chords are parodies/interpretations of the original songs. You may use it for private study, scholarship, research or language learning purposes only