>
 >
Out Of The Silent Planet 2

Out Of The Silent Planet 2 Bass Tabs

Iron Maiden - Out Of The Silent Planet 2 chords, tabs, tablatures, lyrics

Guitar lessons | Add/correct | Request | Top 50 tabs Artists:  A B C D E F G H I J K L M N O P Q R S T U V W X Y Z 0-9

Out Of The Silent Planet 2 Bass Tabs – Iron Maiden

CD, Sheet music, Poster

Do you like Out Of The Silent Planet 2? Share with your friends now
Bass Tabs

Tuning (EADG)

INTRO
G-9-----9---7---------9-----9---7----------9-----9---7-----------9-----9----12----9-
D-9-----7---5---------9-----7---5----------9-----7---5-----------9-----7----10----7-
A-7-------------------7--------------------7---------------------7------------------E-----------------------------------------------------------------------------------




BUILD UP (x4)
G------9---9-9-9-----5--5-5-5----------------------------7--7-7-7------------------
D------9---9-9-9-----5--5-5-5-----5--5-5-5---------------7--7-7-7------------------
A------7---7-7-7-----3--3-3-3-----5--5-5-5---------------5--5-5-5------------------
E---------------------------------3--3-3-3-----------------------------------------

FAST HEAVY PART
G------------------------------------------------------------------
D------------------------------------------------------------------
A---77777--77777--77777--77777--77777--77777--77777--77777---------
E------------------------------------------------------------------

VERSE
G-----------------------------------------------------
D-----------------------------------------------------
A----7-77777--7-777773-333335-55555-----------------
E-----------------------------------------------------

G-----------------------------------------------------
D-----------------------------------------------------
A----7-77777-7-77777---3-33333---0-00000--------------
E-----------------------------------------------------

G-----------------------------------------------------
D-----------------------------------------------------
A----7-77777-7-777773-333335-55555------------------
E-----------------------------------------------------

G-----------------------------------------------------
D-----------------------------------------------------
A----7-77777-7-777773-333335-55555------------------
E-----------------------------------------------------


BRIDGE
G-------------------------------------------------------------
D-------------------------------------------------------------
A----0-000--3-333---------2-222----0-000--3-333--5-555-5-555--
E------------------0-000--------------------------------------

CHORUS #1 (x2)
G------------------------------------------------------
D-----------------------------------------5------------
A----7---3-------5--------7---3-------5----------------
E-------------3----------------------------------------

CHORUS #2,3,4,5 (x2) 
G-------------------------------------------------------------
D-------------------------------------------------------------
A----77777777777--33333333333---------------55555555555-------
E------------------------------33333333333--------------------

G------------------------------------------------------------------------
D----------------------------------------------55555555555---------------
A----77777777777--33333333333-----------------------55555555555----------
E------------------------------------------------------------------------

TWIN GUITAR PART (x4)
G--------------------------------------------------------------
D--------------------------------------------------------------
A----77777777777--33333333333---------------55555555555--------
E----------------------------- 33333333333---------------------

SOLO PART 1 (x24)
G-----------------------------------
D----------------------------5------
A----75---7---5---7----------------
E-----------------------------------

SOLO PART 2
G--------------------------------------------
D--------------------------------------------        (x3)
A----3-333--5-555--7-777-7-777---------------
E--------------------------------------------

G--------------------------------------------
D--------------------------------------------        (x1)
A----3-333--5-555--2-222---3--5--------------
E--------------------------------------------

OUTRO (x5)
G-------------------------------------------
D-------------------------------------------
A-----77777--33333--------55555-------------
E------------------33333--------------------

END ON
G----------------------
D----------------------
A----------------------
E-----------0---------- (let ring)





Comments


Popular Iron Maiden tabs & chords
Age Of Innocence 2 Bass Tabs
Caught Somewhere In Time 1 Bass Tabs
Mother Russia Bass Tabs
2 Am 1 Tabs
Bring Your Daughter To The Slaughter 4 Tabs
Charlotte The Harlot Tabs
Flight Of Icarus Tabs
Iron Maiden 1 Tabs
Phantom Of The Opera 4 Tabs
Paschendale Ukulele


Song lyrics



↑ Back to top | Tablatures and chords are parodies/interpretations of the original songs. You may use it for private study, scholarship, research or language learning purposes only
© 2014 AZChords.com Contact us | Privacy policy | DMCA | Add/correct tabs | Request tabs | Top 50 tabs