» » »

Iron Maiden, No More Lies Tabs (ver.7)

Artists:  A B C D E F G H I J K L M N O P Q R S T U V W X Y Z # 

No More Lies Tabs (ver.7)

Iron Maiden Tabs
 Rating:
4/5 (4 votes)
No More Lies lessons Tabs too difficult? Try these video lessons and learn fast
1
                Use basic tuning, and it should be totally right. Ive stoped after the guitar solo at about 4:51minutes in. 
Enjoy!

 Guitar intro part one - repeat twice
|----------------------------------------------------------------------------------------------------------|
|----------------------------------------------------------------------------------------------------------|
|----------------------------------------------------------------------------------------------------------|
|--14-12-14-12-14-12-14-14-12-14-12-14-12-14-14-12-14-15-17-15-14-12-14-10-10-9-10-9-10-10-9-7-7-5-7-5-12-9|
|-0--------------------------------------------------------------------------------------------------------|
|----------------------------------------------------------------------------------------------------------|

Guitar intro part two - repeat four times
|--------------------------------------------|
|--------------------------------------------|
|--------------------------------------------|
|--------------------------------------------|  
|-14-14-14-14-12-14---14-14-14-14-15-14-12-14|
|--------------------------------------------|

Guitar intro part three - repeat four times
|-5-7-8-5-7-8-5-7-8-10-8-7-8-7---5-|
|------------------------------8---|
|----------------------------------|
|----------------------------------|
|----------------------------------|
|----------------------------------|

Verse 1 - Repeat 4 times
|-------------------------------------------------------------------------|
|-------------------------------------------------------------------------|
|-------------------------------------------------------------------------|
|-7-7-7-7-7-7-7-7-3-3-3-3-3-3-3-3-0-0-0-0-0-0-0-5-5-5-5-11-11-12-11-12-11-|
|-------------------------------------------------------------------------|
|-------------------------------------------------------------------------|

bridge (verse one - chorus) Repeat 4 times
|---------------------------------------------------------------|
|---------------------------------------------------------------|
|---------------------------------------------------------------|
|-7-7-7-7-7-7-7-7-0-0-0-0-0-0-0-0-5-5-5-5-5-5-5-5-0-0-0-0-0-0-0-|
|---------------------------------------------------------------|
|---------------------------------------------------------------|

Chorus 1 - do each chord 10 times (IE to the first one <7,7,5> ten times then go to the next one)
|---------|
|---------|
|---------|
|-7-3-5-7-|
|-7-3-5-5-|
|-5-1-3-5-|

verse two - main guitar
|---------------------------------------------------------------------|
|---------------------------------------------------------------------|
|---------------------------------------------------------------------|
|-7-7-7-7-7-7-7-7---3-3-3-3-3-3-3-3---5-5-5-5-5-5-5-5-5-5-5-5-5-5-5-5-|
|-7-7-7-7-7-7-7-7---3-3-3-3-3-3-3-3---5-5-5-5-5-5-5-5-5-5-5-5-5-5-5-5-|
|-5-5-5-5-5-5-5-5---1-1-1-1-1-1-1-1---3-3-3-3-3-3-3-3-3-3-3-3-3-3-3-3-|

Chorus two - do each chord 10 times as above
|---------|
|---------|
|---------|
|-7-3-5-7-|
|-7-3-5-5-|
|-5-1-3-5-|

Lead guitar - plays while other guitars and drum plays - slightly faster
Guitar part one - repeat twice
|----------------------------------------------------------------------------------------------------------|
|----------------------------------------------------------------------------------------------------------|
|----------------------------------------------------------------------------------------------------------|
|--14-12-14-12-14-12-14-14-12-14-12-14-12-14-14-12-14-15-17-15-14-12-14-10-10-9-10-9-10-10-9-7-7-5-7-5-12-9|
|-0--------------------------------------------------------------------------------------------------------|
|----------------------------------------------------------------------------------------------------------|

Guitar part two - repeat four times
|--------------------------------------------|
|--------------------------------------------|
|--------------------------------------------|
|--------------------------------------------|  
|-14-14-14-14-12-14---14-14-14-14-15-14-12-14|
|--------------------------------------------|

Guitar part three - repeat four times
|-5-7-8-5-7-8-5-7-8-10-8-7-8-7---5-|
|------------------------------8---|
|----------------------------------|
|----------------------------------|
|----------------------------------|
|----------------------------------|

<>

bridge (verse - chorus) Repeat 4 times
|---------------------------------------------------------------|
|---------------------------------------------------------------|
|---------------------------------------------------------------|
|-7-7-7-7-7-7-7-7-0-0-0-0-0-0-0-0-5-5-5-5-5-5-5-5-0-0-0-0-0-0-0-|
|---------------------------------------------------------------|
|---------------------------------------------------------------|

Chorus three - do each chord 10 times as above
|---------|
|---------|
|---------|
|-7-3-5-7-|
|-7-3-5-5-|
|-5-1-3-5-|

Lead guitar - plays while other guitars and drum plays - slightly faster
Guitar part one - repeat twice
|----------------------------------------------------------------------------------------------------------|
|----------------------------------------------------------------------------------------------------------|
|----------------------------------------------------------------------------------------------------------|
|--14-12-14-12-14-12-14-14-12-14-12-14-12-14-14-12-14-15-17-15-14-12-14-10-10-9-10-9-10-10-9-7-7-5-7-5-12-9|
|-0--------------------------------------------------------------------------------------------------------|
|----------------------------------------------------------------------------------------------------------|

Outro- play slower
Guitar part two
|--------------------------------------------|
|--------------------------------------------|
|--------------------------------------------|
|--------------------------------------------|  
|-14-14-14-14-12-14---14-14-14-14-15-14-12-14|
|--------------------------------------------|
            
Submit corrections

comments powered by Disqus
↑ Back to top | Iron Maiden Tabs for No More Lies. Lyrics for acoustic guitar and electric guitar. 1 Tablatures and chords are parodies/interpretations of the original songs. You may use it for private study, scholarship, research or language learning purposes only