» » »

Iron Maiden, No More Lies Tabs (ver.2)

Artists:  A B C D E F G H I J K L M N O P Q R S T U V W X Y Z # 

No More Lies Tabs (ver.2)

Iron Maiden Tabs
 Rating:
4/5 (4 votes)
No More Lies lessons Tabs too difficult? Try these video lessons and learn fast
1
                (Intro)
Iron Maiden - No More Lies Intro
I don't know if it's right but see what you think.

e:--------------------------------------------------------------------------------:
B:----------------------------------------------------------6--8--6---------------:
G:--------9--7--9-----7--9--7--9-9----7--9--7--9-9----7--9-----------9---7--9--7--:
D:---7----------------------------------------------------------------------------:
A:--------------------------------------------------------------------------------:
E:--------------------------------------------------------------------------------:
(not in rhythm you have to listen to the song)

:---------------------------------------------------------------------------------:
:---------------------------------------------------------------------------------:
:---5--5--4--5--4--5-5----4--5--4----------------------------7--------------------:
:-----------------------------------7--7----5--7--5--7---5------------------------:
:---------------------------------------------------------------------------------:
:---------------------------------------------------------------------------------:
repeat x2

Enjoy!
            
Submit corrections

comments powered by Disqus
↑ Back to top | Iron Maiden Tabs for No More Lies. Lyrics for acoustic guitar and electric guitar. 1 Tablatures and chords are parodies/interpretations of the original songs. You may use it for private study, scholarship, research or language learning purposes only