>
 >
No More Lies

No More Lies Bass Tabs

Iron Maiden - No More Lies chords, tabs, tablatures, lyrics

Guitar lessons | Add/correct | Request | Top 50 tabs Artists:  A B C D E F G H I J K L M N O P Q R S T U V W X Y Z 0-9

No More Lies Bass Tabs – Iron Maiden

CD, Sheet music, Poster

Do you like No More Lies? Share with your friends now
Bass TabsTabsTabs v2Tabs v3Tabs v4Tabs v5Tabs v6Tabs v7
-------------------------------------------------------------------------------
		     No more lies - Iron Maiden
-------------------------------------------------------------------------------


Tuning: EADG

So, this is my bass tab for No more lies by Maiden. I've had some problems
with the Intro because it's hard to hear it exactly. The rest was easy to
tab out so I don't think there are any big mistakes.
Write some comments pls ;)
===============================================================================
Intro
Tempo = 170
4/4
G||----9---9-----|-9---9-r-9-----|-9---9-r-9--7-9-|-10---10-r-9--7-9-|
D|o-7----7-----7-|---7---------7-|---7------------|----7-------------|
A|o--------------|---------------|----------------|------------------|
E||--------------|---------------|----------------|------------------|

G|----5-r-5-----|-5---5-r-5----5-|--------------|------------7--||
D|-3----------3-|---3--------3---|----7-r-7-----|-7---7-r-5-----o|
A|--------------|----------------|-5----------5-|---5-----------o|
E|--------------|----------------|--------------|---------------||

G||---9---9---9---9-|---9---9---9----|---5---5---5----|----------7----|
D|o-7---7---7---7---|-7---7---7---7--|-3---3---3---3--|---5----5---5--|
A|o-----------------|----------------|----------------|-3---3---------|
E||-----------------|----------------|----------------|---------------|

G|---9---9---9---9-|---9---9---9----|----------------|---5------7----||
D|-7---7---7---7---|-7---7---7---7--|---7---7---7----|-3---3--5---5--o|
A|-----------------|----------------|-5---5---5---5--|---------------o|
E|-----------------|----------------|----------------|---------------||

G||---9---9---9---9-|---9---9---9----|---5---5---5----|---7---7---7----|
D|o-7---7---7---7---|-7---7---7---7--|-3---3---3---3--|-5---5---5---5--|
A|o-----------------|----------------|----------------|----------------|
E||-----------------|----------------|----------------|----------------|

G|---9---9---9---9-|---9---9---9---|----------------|---5------7----||
D|-7---7---7---7---|-7---7---7---7-|---7---7---7----|-3---3--5---5--o|
A|-----------------|---------------|-5---5---5---5--|---------------o|
E|-----------------|---------------|----------------|---------------||

Verse 1

G||---9---9---9---9-|---9---9---9----|---5---5---5---5-|---5---5---5----|
D|o-7---7---7---7---|-7---7---7---7--|-3---3---3---3---|-3---3---3---3--|
A|o-----------------|----------------|-----------------|----------------|
E||-----------------|----------------|-----------------|----------------|

								       4x
G|-----------------|----------------|---7---7---7---7-|---7---7---7----||
D|---7---7---7---7-|---7---7---7----|-5---5---5---5---|-5---5---5---5--o|
A|-5---5---5---5---|-5---5---5---5--|-----------------|----------------o|
E|-----------------|----------------|-----------------|----------------||

Pre-Chorus 1
								      3x
G||---9---9---9----|----------------|----------------|---7---7---7----||
D|o-7---7---7---7--|---7---7---7----|---5---5---5----|-5---5---5---5--o|
A|o----------------|-5---5---5---5--|-3---3---3---3--|----------------o|
E||----------------|----------------|----------------|----------------||

G|---9---9---9----|----------------|----------------|---7---7---7---7-|
D|-7---7---7---7--|---7---7---7----|---5---5---5----|-5---5---5---5---|
A|----------------|-5---5---5---5--|-3---3---3---3--|-----------------|
E|----------------|----------------|----------------|-----------------|

G|---7---7---7---7-|
D|-5---5---5---5---|
A|-----------------|
E|-----------------|

Chorus 1
Tempo = 194

G||-----------------|-------------|-----------------|-------------|
D|o-7-7-7-7-7-r-7-7-|-7-7-7-r-----|-3-3-3-3-3-r-3-3-|-3-3-3-r-----|
A|o-----------------|-------------|-----------------|-------------|
E||-----------------|-------------|-----------------|-------------|

							 let ring at 2nd time
G|-----------------|-------------|-----------------|-------------||
D|-5-5-5-5-5-r-5-5-|-5-5-5-r-----|-----------------|-------------o|
A|-----------------|-------------|-5-5-5-5-5-r-5-5-|-5-5-5-r-----o|
E|-----------------|-------------|-----------------|-------------||

Verse 2

G||-----------------|-----------------|-----------------|-----------------|
D|o-7-7-7-7-7-7-7-7-|-7-7-7-7-7-7-7-7-|-3-3-3-3-3-3-3-3-|-3-3-3-3-3-3-3-3-|
A|o-----------------|-----------------|-----------------|-----------------|
E||-----------------|-----------------|-----------------|-----------------|

									 4x
G|-----------------|-----------------|-----------------|-----------------||
D|-----------------|-----------------|-5-5-5-5-5-5-5-5-|-5-5-5-5-5-5-5-5-o|
A|-5-5-5-5-5-5-5-5-|-5-5-5-5-5-5-5-5-|-----------------|-----------------o|
E|-----------------|-----------------|-----------------|-----------------||

Pre-Chorus 2

G||-----------------|-----------------|-----------------|-----------------||
D|o-7-7-7-7-7-7-7-7-|-----------------|-----------------|-5-5-5-5-5-5-5-5-o|
A|o-----------------|-5-5-5-5-5-5-5-5-|-3-3-3-3-3-3-3-3-|-----------------o|
E||-----------------|-----------------|-----------------|-----------------||

G|-----------------|
D|-5-5-5-5-5-5-5-5-|
A|-----------------|
E|-----------------|

Chorus 2

G|-----------------|-------------|-----------------|-------------|
D|-7-7-7-7-7-r-7-7-|-7-7-7-r-----|-3-3-3-3-3-r-3-3-|-3-3-3-r-----|
A|-----------------|-------------|-----------------|-------------|
E|-----------------|-------------|-----------------|-------------|

G|-----------------|-------------|-----------------|-------------|
D|-5-5-5-5-5-r-5-5-|-5-5-5-r-----|-----------------|-------------|
A|-----------------|-------------|-5-5-5-5-5-r-5-5-|-5-5-5-r-----|
E|-----------------|-------------|-----------------|-------------|

G|-----------------|-----------------|-----------------|-----------------|
D|-7-7-7-7-7-7-7-7-|-7-7-7-7-7-7-7-7-|-3-3-3-3-3-3-3-3-|-3-3-3-3-3-3-3-3-|
A|-----------------|-----------------|-----------------|-----------------|
E|-----------------|-----------------|-----------------|-----------------|

G|-----------------|-----------------|-----------------|-----------------|
D|-5-5-5-5-5-5-5-5-|-5-5-5-5-5-5-5-5-|-----------------|-----------------|
A|-----------------|-----------------|-5-5-5-5-5-5-5-5-|-5-5-5-5-5-5-5-5-|
E|-----------------|-----------------|-----------------|-----------------|

Bridge

G||-----------------|-----------------|-----------------|-----------------|
D|o-7-7-7-7-7-7-7-7-|-7-7-7-7-7-7-7-7-|-7-7-7-7-7-7-7-7-|-7-7-7-7-7-7-7-7-|
A|o-----------------|-----------------|-----------------|-----------------|
E||-----------------|-----------------|-----------------|-----------------|

G|-----------------|-----------------|-----------------|-----------------||
D|-3-3-3-3-3-3-3-3-|-3-3-3-3-3-3-3-3-|-----------------|---------5-5-5-5-o|
A|-----------------|-----------------|-5-5-5-5-5-5-5-5-|-5-5-5-5---------o|
E|-----------------|-----------------|-----------------|-----------------||

G||-----------------|-----------------|-----------------|-----------------|
D|o-7-7-7-7-7-7-7-7-|-7-7-7-7-7-7-7-7-|-3-3-3-3-3-3-3-3-|---------5-5-5-5-|
A|o-----------------|-----------------|-----------------|-3-3-3-3---------|
E||-----------------|-----------------|-----------------|-----------------|

G|-----------------|-----------------|-----------------|-----------------||
D|-7-7-7-7-7-7-7-7-|-7-7-7-7-7-7-7-7-|-----------------|-3-3-3-3-5-5-5-5-o|
A|-----------------|-----------------|-5-5-5-5-5-5-5-5-|-----------------o|
E|-----------------|-----------------|-----------------|-----------------||

G||-----------------|-----------------|-----------------|-----------------|
D|o-7-7-7-7-7-7-7-7-|-7-7-7-7-7-7-7-7-|-3-3-3-3-3-3-3-3-|-5-5-5-5-5-5-5-5-|
A|o-----------------|-----------------|-----------------|-----------------|
E||-----------------|-----------------|-----------------|-----------------|

G|-----------------|-----------------|-----------------|-----------------||
D|-7-7-7-7-7-7-7-7-|-7-7-7-7-7-7-7-7-|-----------------|-3-3-3-3-5-5-5-5-o|
A|-----------------|-----------------|-5-5-5-5-5-5-5-5-|-----------------o|
E|-----------------|-----------------|-----------------|-----------------||

Guitar Solo

G||-----------------|-----------------|-----------------|-----------------|
D|o-7-7-7-7-7-7-7-7-|-7-7-7-7-7-7-7-7-|-3-3-3-3-3-3-3-3-|-5-5-5-5-5-5-5-5-|
A|o-----------------|-----------------|-----------------|-----------------|
E||-----------------|-----------------|-----------------|-----------------|

G|-----------------|-----------------|-----------------|-----------------||
D|-7-7-7-7-7-7-7-7-|-7-7-7-7-7-7-7-7-|-----------------|-3-3-3-3-5-5-5-5-o|
A|-----------------|-----------------|-5-5-5-5-5-5-5-5-|-----------------o|
E|-----------------|-----------------|-----------------|-----------------||

									  4x
G||-----------------|-----------------|-----------------|-----------------||
D|o-7-7-7-7-7-7-7-7-|-7-7-7-7-7-7-7-7-|-3-3-3-3-3-3-3-3-|-5-5-5-5-5-5-5-5-o|
A|o-----------------|-----------------|-----------------|-----------------o|
E||-----------------|-----------------|-----------------|-----------------||

G||-----------------|-----------------|-----------------|-----------------|
D|o-7-7-7-7-7-7-7-7-|-7-7-7-7-7-7-7-7-|-3-3-3-3-3-3-3-3-|-5-5-5-5-5-5-5-5-|
A|o-----------------|-----------------|-----------------|-----------------|
E||-----------------|-----------------|-----------------|-----------------|

G|-----------------|-----------------|-----------------|-----------------||
D|-7-7-7-7-7-7-7-7-|-7-7-7-7-7-7-7-7-|-----------------|-3-3-3-3-5-5-5-5-o|
A|-----------------|-----------------|-5-5-5-5-5-5-5-5-|-----------------o|
E|-----------------|-----------------|-----------------|-----------------||

---> (2x) Pre-Chorus 2
---> Chorus 2

G|-----------------|-----------------|-----------------|-----------------|
D|-7-7-7-7-7-7-7-7-|-7-7-7-7-7-7-7-7-|-3-3-3-3-3-3-3-3-|-3-3-3-3-3-3-3-3-|
A|-----------------|-----------------|-----------------|-----------------|
E|-----------------|-----------------|-----------------|-----------------|

G|-----------------|-----------------|-----------------|-----------------|
D|-5-5-5-5-5-5-5-5-|-5-5-5-5-5-5-5-5-|-----------------|-----------------|
A|-----------------|-----------------|-5-5-5-5-5-5-5-5-|-5-5-5-5-5-5-5-5-|
E|-----------------|-----------------|-----------------|-----------------|

Outro

G||-----------------|-----------------|-----------------|-----------------|
D|o-7-7-7-7-7-7-7-7-|-7-7-7-7-7-7-7-7-|-7-7-7-7-7-7-7-7-|-7-7-7-7-7-7-7-7-|
A|o-----------------|-----------------|-----------------|-----------------|
E||-----------------|-----------------|-----------------|-----------------|

		    Slow down at 2nd time
G|-----------------|-----------------|-----------------|-----------------||
D|-3-3-3-3-3-3-3-3-|-3-3-3-3-3-3-3-3-|-----------------|---------5-5-5-5-o|
A|-----------------|-----------------|-5-5-5-5-5-5-5-5-|-5-5-5-5---------o|
E|-----------------|-----------------|-----------------|-----------------||

Tempo = 175

G|---9---9---9---9-|---9---9---9----|---5---5---5----|---7---7---7----|
D|-7---7---7---7---|-7---7---7---7--|-3---3---3---3--|-5---5---5---5--|
A|-----------------|----------------|----------------|----------------|
E|-----------------|----------------|----------------|----------------|

		    Slow down
G|---9---9---9---9-|---9---9---9---|----------------|---5------7----|
D|-7---7---7---7---|-7---7---7---7-|---7---7---7----|-3---3--5---5--|
A|-----------------|---------------|-5---5---5---5--|---------------|
E|-----------------|---------------|----------------|---------------|

G|---9---9----|----------||
D|-7---7---7--|-(7)------||
A|------------|----------||
E|------------|----------||

===============================================================================
|( ) Hold note
| r  Rest
|        x
| ||----||
| |o----o|	Repeat x times
| |o----o|
| ||----||
===============================================================================





Comments


Popular Iron Maiden tabs & chords
Dance Of Death 2 Bass Tabs
Ghost Of The Navigator Bass Tabs
Aces High 9 Tabs
Another Life Tabs
Can I Play With Madness 3 Tabs
Fortunes Of War 1 Tabs
Rime Of The Ancient Mariner 1 Tabs
The Idles Of March Tabs
The Prisoner 1 Tabs
Two Am Tabs


Song lyrics



↑ Back to top | Tablatures and chords are parodies/interpretations of the original songs. You may use it for private study, scholarship, research or language learning purposes only
© 2014 AZChords.com Contact us | Privacy policy | DMCA | Add/correct tabs | Request tabs | Top 50 tabs