» » »

Lord Of The Flies Tabs (ver.3)

Artists:  A B C D E F G H I J K L M N O P Q R S T U V W X Y Z # 

Lord Of The Flies Tabs (ver.3)

Iron Maiden
Rating:
0/5 (0 votes)

Hard to play? Try these video lessons and learn fast.
                (Live)
This is from the Death on the Road Live Album
Intro X14
Guitar 1: Janick Gers
e|---------------------------------|
B|---------------------------------|
G|222--555--777--555--2h00---------|
D|222--555--777--555--2h00---------|
A|---------------------------------|
E|---------------------------------|
Guitar 2: Dave Murray X12
e|---------------------------------|
B|---------------------------------|
G|7--------------------------------|
D|7--------------------------------|
A|5--------------------------------|
E|---------------------------------|
Guitar 3: Adrian Smith (Chugg as many times as is neccesary) for last 8 Bars of Intro
e|---------------------------------|
B|---------------------------------|
G|777777777777777777777777777777777
D|777777777777777777777777777777777
A|555555555555555555555555555555555
E|---------------------------------

Verse
Guitar 1 X6
e|---------------------------------|
B|---------------------------------|
G|---------------------------------|
D|5--10---7---5---5--10---7--------|
A|7---7---5---7---7---7---5--------|
E|---------------------------------|

Guitar 2 and 3 X6
e|---------------------------------|
B|---------------------------------|
G|9-----------------------7--------|
D|9-----------------------7--------|
A|7-----------------------5--------|
E|---------------------------------|


Prechorus
All Guitars
e|---------------------------------|
B|---------------------------------|
G|5---------------7----------------|
D|5---------------7----------------|
A|3---------------5----------------|
E|---------------------------------|

e|---------------------------------|
B|---------------------------------|
G|5---------------9--9--9--9-7-----|
D|5---------------9--9--9--9-7-----|
A|3---------------7--7--7--7-5-----|
E|---------------------------------|

e|---------------------------------|
B|---------------------------------|
G|5---------------7----------------|
D|5---------------7----------------|
A|3---------------5----------------|
E|---------------------------------|

e|---------------------------------|
B|---------------------------------|
G|5---------------2----------------|
D|5---------------2----------------|
A|3---------------0----------------|
E|---------------------------------|

Repeat Verse
Repeat Prechorus

Chorus: All Guitars X2
e|--------------------------------|
B|--------------------------------|
G|9------5----------7-----5---7---|
D|9------5-----5----7-----5---7---|
A|7------3-----5----5-----3---5---|
E|0------------3------------------|

1st Bridge/Outro: Guitar 1 X8
e|--------------------------------|
B|--------------------------------|
G|444--777--999--777--4h22*-------|
D|444--777--999--777--4h22*-------|
A|--------------------------------|
E|--------------------------------|
* 2nd fret and 2nd fret not 22nd fret
Guitar 2 and 3 X8
e|--------------------------------|
B|--------------------------------|
G|9-------------------------------|
D|9-------------------------------|
A|7-------------------------------|
E|0-------------------------------|

Backing for solo X2 (I'm not Dave Murray, Janick Gers or Adrian Smith so i can't do
the solo) (If you want to improvise a solo it is probably on the E Minor Pentatonic
Scale and let guitars 1 and 2 solo)

e|--------------------------------|
B|--------------------------------|
G|9--------5------12-12-----------|
D|9--------5------12-12-----------|
A|7--------3------10-10-----------|
E|0-------------------------------|

e|--------------------------------|
B|--------------------------------|
G|9---------------5---7-----------|
D|9-------5-------5---7-----------|
A|7-------5-------3---5-----------|
E|0-------3-----------------------|

2nd Bridge: Guitar 1
e|--------------------------------|
B|0--1--3--1--0--0--1--3--1-0-----|
G|--------------------------------|
D|--------------------------------|
A|--------------------------------|
E|--------------------------------|

e|------------------0---2--0------|
B|0--1--3--1--0--3-----------3----|
G|--------------------------------|
D|--------------------------------|
A|--------------------------------|
E|--------------------------------|

Guitar 2: Harmonies on the next octave

Guitar 3: Plays Chorus Chords

Repeat Chorus X2

Repeat 1st Bridge X4
End
            
Hard to play? Try these video lessons and learn fast. | Correct




comments powered by Disqus
↑ Back to top | Tablatures and chords are parodies/interpretations of the original songs. You may use it for private study, scholarship, research or language learning purposes only