» » »

Iron Maiden, Lord Of The Flies Tabs (ver.1)

Artists:  A B C D E F G H I J K L M N O P Q R S T U V W X Y Z # 

Lord Of The Flies Tabs (ver.1)

Iron Maiden Tabs
 Rating:
4/5 (4 votes)
Lord Of The Flies lessons Tabs too difficult? Try these video lessons and learn fast
                                           lord of the flies
                            by iron maiden
                           standard tuning(EADGBE)
        
since there were no tabs of this song, so i thought i should give it go, so here it is.

                 h=hammer on
                 p=pull off
                 b=bend
                 v=vibrato
                 r-release
                 s=slide
                 x=finger mute
                 x#=play certain amount of times such as "x5" =play 5 times
         
         |----------------------------------------------------|
         |-----------3-----5-----3----------------------------|
         |-----4----------------------------------------------|
         |-------5-5---5-5---5-5---5-5----7b9r-7s9v-----------|
         |----------------------------------------------------|
         |----------------------------------------------------|

     |-------------------------------------------------------------|
     |-------------------------------------------------------------|
     |----6--7--9--6----6--7--4----6--7--9--6----6--7--4-----------|
     |----6--7--9--6----6--7--4----6--7--9--6----6--7--4-----------|
     |----4--5--7--4----4--5--2----4--5--7--4----4--5--2-----------|
     |-------------------------------------------------------------|

       |--------------------------------------------------------|
       |--------------------------------------------------------|
       |---7--7---9---9-x-9-x-9----7---6----2---6-x-6--4--------|
       |---7--7---9---9-x-9-x-9----7---6----2---6-x-6--4--------|
       |---5--5---7---7-x-7-x-7----5---4s2--0---4-x-4--2--------|
       |---5--5---7---7-x-7-x-7----5------------4-x-4-----------|


     |-------------------------------------------------------------|
     |-------------------------------------------------------------|
     |---7--7---9---9-x-9-x-9----7---------------------------------|
     |---7--7---9---9-x-9-x-9----7---6---2--4--6---6---2--4--2-----|
     |---5--5---7---7-x-7-x-7----5---6---2--4--6---6---2--4--2-----|
     |---5--5---7---7-x-7-x-7----5---4s2-0--2--4---4s2-0--2--0-----|

    |----------------------------------------------------------------|
    |----------------------------------------------------------------|
    |---6-----------7---------------------9-----------7-7--7--9-9--9-|
    |---6-let-ring--7-let-ring-7----------9-let-ring--7-7--7--9-9--9-|
    |---4-----------5----------7-let-ring-7-----------5-5--5--7-7--7-|
    |--------------------------5-------------------------------------|

    |-------------------------------17b19--19-17-16------------------|
    |-------------------16b18v--14------------------19-17-19---------|
    |------16b18r--14v-----------------------------------------------|
    |----------------------------------------------------------------|
    |----------------------------------------------------------------|
    |----------------------------------------------------------------|

  |--------------------------------------------19b21-19b21-19b21r-------|
  |---------------------------------------------------------------------|
  |-16b18r--16p14--14---------------------------------------------------|
  |--------------16-----------------------------------------------------|
  |------------------9b11-x8-then-release-bend--------------------------|
  |---------------------------------------------------------------------|

|---21-19-17--16-17-16----14-----------------------------------------------|
|----------------------17----------------------------------------5-7-9-7-5-|
|-------------------------------6-7-9-7-6--6-7-9-7-6---6-7-9-7-6-----------|
|--------------------------------------------------------------------------|
|--------------------------------------------------------------------------|
|--------------------------------------------------------------------------|
    
    |----------------------------------------------------------------|
    |----------------------------------------------------------------|
    |---6-----------7---------------------9-----------7-7--7--9-9--9-|
    |---6-let-ring--7-let-ring-7----------9-let-ring--7-7--7--9-9--9-|
    |---4-----------5----------7-let-ring-7-----------5-5--5--7-7--7-|
    |--------------------------5-------------------------------------|

         |----------------------------------------------------|
         |-----------5-----7-----5----------------------------|
         |-----6----------------------------------------------|
         |-------7-7---7-7---7-7---7-7----9b11r-9s11v---------|
         |----------------------------------------------------|
         |----------------------------------------------------|


AND there you have it folks...shout out to patrick, colin and mike A>K>A> my band (eternal descent)
            
Submit corrections

comments powered by Disqus
↑ Back to top | Iron Maiden Tabs for Lord Of The Flies. Lyrics for acoustic guitar and electric guitar. Tablatures and chords are parodies/interpretations of the original songs. You may use it for private study, scholarship, research or language learning purposes only