>
 >
Invaders 2

Invaders 2 Guitar Tabs

Iron Maiden - Invaders 2 chords, tabs, tablatures, lyrics

Guitar lessons | Add/correct | Request | Top 50 tabs Artists:  A B C D E F G H I J K L M N O P Q R S T U V W X Y Z 0-9

Invaders 2 Guitar Tabs – Iron Maiden

CD, Sheet music, Poster

Do you like Invaders 2? Share with your friends now
Bass TabsDrum TabsTabsTabs v2Tabs v3
  Invaders                          
                                  Iron Maiden


Duration Legend
---------------
W - whole
H - half
Q - quarter
E - 8th
S - 16th
T - 32nd
X - 64th
. - note dotted
|-n-|  - n-tuplets


Tablature Legend
----------------
L - tied note
x - dead note
g - grace note
(n) - ghost note
> - accentuded note
NH - natural harmonic
AH - artificial harmonic
TH - tapped harmonic
SH - semi harmonic
PH - pitch harmonic
h - hammer on
p - pull off
b - bend
br - bendRelease
pb - preBend
pbr - preBendRelease
brb - bendReleaseBend
\n/ - tremolo bar dip
\n - tremolo bar dive
-/n - tremolo bar Release up
/n\ - tremolo bar inverted dip
/n - tremolo bar return
-\n - tremolo bar Release down
S - shift slide
s - legato slide
/ -  slide into from below or out of upwards
\ -  slide into from above or out of downwards
~ - vibrato
W - wide vibrato
tr - trill
TP - tremolo picking
T - tapping
S - slap
P - pop
< - fade in
^ - brush up
v - brush down


     S S S S E  Q    Q    E     H.           E  E     S S S S E  Q    Q    E   
E||--------------------------|---------------------|--------------------------|
B||--------------------------|---------------------|--------------------------|
G||--9-9-9-9-9-------5----7--|--L------------L-----|--9-9-9-9-9-------5----7--|
D||--9-9-9-9-9-------5----7--|--L------------L-----|--9-9-9-9-9-------5----7--|
A||--7-7-7-7-7-------3----5--|--L------------L-----|--7-7-7-7-7-------3----5--|
E||--------------------------|---------------------|--------------------------|


  H.           E  E     S S S S E  Q    Q    E     H.           E  E   
---------------------|--------------------------|---------------------|
---------------------|--------------------------|---------------------|
--L------------L-----|--9-9-9-9-9-------5----7--|--L------------L-----|
--L------------L-----|--9-9-9-9-9-------5----7--|--L------------L-----|
--L------------L-----|--7-7-7-7-7-------3----5--|--L------------L-----|
---------------------|--------------------------|---------------------|


  S S S S E  E  S S S S E  E     S S S S E  H        E     H.           E  E   
------------------------------|-------------------------|---------------------|
------------------------------|-------------------------|---------------------|
--9-9-9-9-9-----5-5-5-5-5-----|--7-7-7-7-5--7--------L--|--L------------------|
--9-9-9-9-9-----5-5-5-5-5-----|--7-7-7-7-5--7--------L--|--L------------------|
--7-7-7-7-7-----3-3-3-3-3-----|--5-5-5-5-3--5--------L--|--L---------------0--|
------------------------------|-------------------------|---------------------|


  E  E  Q    Q    E  E     E  E  E  E  Q    E  E     E  E  Q    Q    E  E   
------------------------|-------------------------|------------------------|
------------------------|-------------------------|------------------------|
------------------------|-------------------------|---------------------5--|
-------------7-------5--|-----5--L----------------|-------------7-------5--|
--L--0--5---------7-----|-----------0--5----3--0--|--L--0--5---------7--3--|
------------------------|-------------------------|------------------------|


  E  E  Q    Q    E  E     E  E  Q    Q    E  E     E  E  E  E  Q    E  E   
------------------------|------------------------|-------------------------|
------------------------|------------------------|-------------------------|
-----5--L----7----------|------------------------|-------------------------|
-----5--L----7----------|-------------7-------5--|-----5--L----------------|
-----3--L----5----0--0--|--L--0--5---------7-----|-----------0--5----3--0--|
------------------------|------------------------|-------------------------|


  E  E  Q    Q    E  E     E  E  Q    Q    E  E     E  E  Q    Q    E  E   
------------------------|------------------------|------------------------|
------------------------|------------------------|------------------------|
---------------------5--|-----5--L----7----------|------------------------|
-------------7-------5--|-----5--L----7----------|-------------7-------5--|
--L--0--5---------7--3--|-----3--L----5----0--0--|--L--0--5---------7-----|
------------------------|------------------------|------------------------|


  E  E  E  E  Q    E  E     E  E  Q    Q    E  E     E  E  Q    Q    E  E   
-------------------------|------------------------|------------------------|
-------------------------|------------------------|------------------------|
-------------------------|---------------------5--|-----5--L----7----------|
-----5--L----------------|-------------7-------5--|-----5--L----7----------|
-----------0--5----3--0--|--L--0--5---------7--3--|-----3--L----5----0--0--|
-------------------------|------------------------|------------------------|


  E  E  Q    Q    E  E     E  E  E  E  Q    E  E     E  E  Q    Q    E  E   
------------------------|-------------------------|------------------------|
------------------------|-------------------------|------------------------|
------------------------|-------------------------|---------------------5--|
-------------7-------5--|-----5--L----------------|-------------7-------5--|
--L--0--5---------7-----|-----------0--5----3--0--|--L--0--5---------7--3--|
------------------------|-------------------------|------------------------|


  E  Q    E  Q    E  E     E  E  E  E  E  E  E  E     E  E  E  E  E  E  E  E   
------------------------|--------------------------|--------------------------|
------------------------|--------------------------|--------------------------|
-----5----L--7-------9--|--L-----9--------9-----9--|--------9--------9-----5--|
-----5----L--7-------9--|--L-----9--------9-----9--|--L-----9--------9-----5--|
-----3----L--5----0--7--|--L--7--7--7--7--7--7--7--|-----7--7--7--7--7--7--3--|
------------------------|--------------------------|--------------------------|


  E  E  E  E  E  E  E  E     E  E  E  E  E  E  E  E   
--------------------------|--------------------------|
--------------------------|--------------------------|
--L-----5--------5-----7--|--------7--------7-----9--|
--L-----5--------5-----7--|--------7--------7-----9--|
--L--3--3--3--3--3--3--5--|--L--5--5--5--5--5--5--7--|
--------------------------|--------------------------|


  E  E  E  E  E  E  E  E     E  E  E  E  E  E  E  E   
--------------------------|--------------------------|
--------------------------|--------------------------|
--L-----9--------9-----9--|--------9--------9-----5--|
--L-----9--------9-----9--|--L-----9--------9-----5--|
--L--7--7--7--7--7--7--7--|-----7--7--7--7--7--7--3--|
--------------------------|--------------------------|


  E  E  E  E  E  E  E  E     E  E  E  E  E  E  E  E   
--------------------------|--------------------------|
--------------------------|--------------------------|
--L-----5--------5-----7--|--------7--------7-----9--|
--L-----5--------5-----7--|--------7--------7-----9--|
--L--3--3--3--3--3--3--5--|--L--5--5--5--5--5--5--7--|
--------------------------|--------------------------|


  E  E  E  E  E  E  E  E     E  E  E  E  E  E  E  E   
--------------------------|--------------------------|
--------------------------|--------------------------|
--L-----9--------9-----9--|--------9--------9-----5--|
--L-----9--------9-----9--|--L-----9--------9-----5--|
--L--7--7--7--7--7--7--7--|-----7--7--7--7--7--7--3--|
--------------------------|--------------------------|


  E  E  E  E  E  E  E  E     E  E  E  E  E  E  E  E   
--------------------------|--------------------------|
--------------------------|--------------------------|
--L-----5--------5-----7--|--------7--------7-----9--|
--L-----5--------5-----7--|--------7--------7-----9--|
--L--3--3--3--3--3--3--5--|--L--5--5--5--5--5--5--7--|
--------------------------|--------------------------|


  E  E  E  E  E  E  E  E     E  E  E  E  E  E  E  E   
--------------------------|--------------------------|
--------------------------|--------------------------|
--L-----9--------9-----9--|--------9--------9-----5--|
--L-----9--------9-----9--|--L-----9--------9-----5--|
--L--7--7--7--7--7--7--7--|-----7--7--7--7--7--7--3--|
--------------------------|--------------------------|


  E  E  E  E  E  E  E  E     E  E  E  E  E  E  E  E     E  E  E  Q    E  E  E   
--------------------------|--------------------------|-------------------------|
--------------------------|--------------------------|-------------------------|
--L-----5--------5-----7--|--------7--------7--------|-------------------------|
--L-----5--------5-----7--|--------7--------7--------|-------------------------|
--L--3--3--3--3--3--3--5--|--L--5--5--5--5--5--5--5--|--7--7--7--5----4--------|
--------------------------|--------------------------|-------------------7--5--|


  E  E  E  Q    E  E  E     E  E  E  Q    E  E  E     E  E  E  Q    E  E  E   
-------------------------|-------------------------|-------------------------|
-------------------------|-------------------------|-------------------------|
-------------------------|-------------------------|-------------------------|
-------------------------|-------------------------|----------------------9--|
--7--7--7--5----4--------|--7--7--7--5----4--------|--7--7--7--5----4-----9--|
-------------------7--5--|-------------------7--5--|-------------------7--7--|


  E  E  E  E  E  E  E  E     E  Q    Q    E  Q       Q    E  E  E  E  E  E   
--------------------------|-----------------------|-------------------------|
--------------------------|-----------------------|-------------------------|
--------------------------|-----------------------|-------------------------|
--L-----------------------|--9--6----6----6--7----|--9----------------------|
--L-----------------------|--9--6----6----6--7----|--9----------------------|
--L--7--7--7--7--7--7--7--|--7--4----4----4--5----|--7----7--7--7--7--7--7--|


  E  Q    Q    E  Q       Q    E  E  E  E  E  E     E  Q    Q    E  Q     
-----------------------|-------------------------|-----------------------|
-----------------------|-------------------------|-----------------------|
-----------------------|-------------------------|-----------------------|
--9--6----6----6--7----|--9----------------------|--9--6----6----6--7----|
--9--6----6----6--7----|--9----------------------|--9--6----6----6--7----|
--7--4----4----4--5----|--7----7--7--7--7--7--7--|--7--4----4----4--5----|


  Q    E  E  E  E  E  E     E  Q    Q    E  Q       Q    E  Q.     Q     
-------------------------|-----------------------|----------------------|
-------------------------|-----------------------|----------------------|
-------------------------|-----------------------|--8----L--------------|
--9----------------------|--9--6----6----6--7----|--8----L--6------6----|
--9----------------------|--9--6----6----6--7----|--6----L--6-----------|
--7----7--7--7--7--7--7--|--7--4----4----4--5----|----------4-----------|


  E  E  E  E  H            Q    E  Q.     Q       E  E  E  E  E  E  E  E   
------------------------|----------------------|--------------------------|
------------------------|----------------------|--------------------------|
--------5--6--8\--------|--8----L---------8----|--L--6--5-----------------|
--L--8------------------|--8----L--6-----------|-----------8--6--5--------|
------------------------|--6----L--6-----------|--------------------8--6--|
------------------------|----------4-----------|--------------------------|


  Q    E  Q.     Q       E  E  E  E  H            Q    E  Q.     Q     
----------------------|------------------------|----------------------|
----------------------|------------------------|----------------------|
--8----L--------------|--------5--6--8\--------|--8----L---------8----|
--8----L--6------6----|--L--8------------------|--8----L--6-----------|
--6----L--6-----------|------------------------|--6----L--6-----------|
----------4-----------|------------------------|----------4-----------|


  E  E  E  E  E  E  E  E     E  E  E  Q    E  E  E     E  E  E  Q    E  E  E   
--------------------------|-------------------------|-------------------------|
--------------------------|-------------------------|-------------------------|
--L--6--5-----------------|-------------------------|-------------------------|
-----------8--6--5--------|-------------------------|-------------------------|
--------------------8--6--|--7--7--7--5----4--------|--7--7--7--5----4--------|
--------------------------|-------------------7--5--|-------------------7--5--|


  E  E  E  Q    E  E  E     E  E  E  Q    E  E  E     E  E  E  E  E  E  E  E   
-------------------------|-------------------------|--------------------------|
-------------------------|-------------------------|--------------------------|
-------------------------|----------------------9--|--L-----9--------9-----9--|
-------------------------|----------------------9--|--L-----9--------9-----9--|
--7--7--7--5----4--------|--7--7--7--5----4-----7--|--L--7--7--7--7--7--7--7--|
-------------------7--5--|-------------------7-----|--------------------------|


  E  E  E  E  E  E  E  E     E  E  E  E  E  E  E  E   
--------------------------|--------------------------|
--------------------------|--------------------------|
--------9--------9-----5--|--L-----5--------5-----7--|
--L-----9--------9-----5--|--L-----5--------5-----7--|
-----7--7--7--7--7--7--3--|--L--3--3--3--3--3--3--5--|
--------------------------|--------------------------|


  E  E  E  E  E  E  E  E     E  E  E  E  E  E  E  E   
--------------------------|--------------------------|
--------------------------|--------------------------|
--------7--------7-----9--|--L-----9--------9-----9--|
--------7--------7-----9--|--L-----9--------9-----9--|
--L--5--5--5--5--5--5--7--|--L--7--7--7--7--7--7--7--|
--------------------------|--------------------------|


  E  E  E  E  E  E  E  E     E  E  E  E  E  E  E  E   
--------------------------|--------------------------|
--------------------------|--------------------------|
--------9--------9-----5--|--L-----5--------5-----7--|
--L-----9--------9-----5--|--L-----5--------5-----7--|
-----7--7--7--7--7--7--3--|--L--3--3--3--3--3--3--5--|
--------------------------|--------------------------|


  E  E  E  E  E  E  E  E     E  E  E  E  E  E  E  E   
--------------------------|--------------------------|
--------------------------|--------------------------|
--------7--------7-----9--|--L-----9--------9-----9--|
--------7--------7-----9--|--L-----9--------9-----9--|
--L--5--5--5--5--5--5--7--|--L--7--7--7--7--7--7--7--|
--------------------------|--------------------------|


  E  E  E  E  E  E  E  E     E  E  E  E  E  E  E  E   
--------------------------|--------------------------|
--------------------------|--------------------------|
--------9--------9-----5--|--L-----5--------5-----7--|
--L-----9--------9-----5--|--L-----5--------5-----7--|
-----7--7--7--7--7--7--3--|--L--3--3--3--3--3--3--5--|
--------------------------|--------------------------|


  E  E  E  E  E  E  E  E     E  E  E  E  E  E  E  E   
--------------------------|--------------------------|
--------------------------|--------------------------|
--------7--------7-----9--|--L-----9--------9-----9--|
--------7--------7-----9--|--L-----9--------9-----9--|
--L--5--5--5--5--5--5--7--|--L--7--7--7--7--7--7--7--|
--------------------------|--------------------------|


  E  E  E  E  E  E  E  E     E  E  E  E  E  E  E  E   
--------------------------|--------------------------|
--------------------------|--------------------------|
--------9--------9-----5--|--L-----5--------5-----7--|
--L-----9--------9-----5--|--L-----5--------5-----7--|
-----7--7--7--7--7--7--3--|--L--3--3--3--3--3--3--5--|
--------------------------|--------------------------|


  E  E  E  E  E  E  E  E     E  E  E  Q    E  E  E     E  E  E  Q    E  E  E   
--------------------------|-------------------------|-------------------------|
--------------------------|-------------------------|-------------------------|
--------7--------7--------|-------------------------|-------------------------|
--------7--------7--------|-------------------------|-------------------------|
--L--5--5--5--5--5--5--5--|--7--7--7--5----4--------|--7--7--7--5----4--------|
--------------------------|-------------------7--5--|-------------------7--5--|


  E  E  E  Q    E  E  E     E  E  E  Q    E  E  E     E  E  E  E  E  E  E  E   
-------------------------|-------------------------|--------------------------|
-------------------------|-------------------------|--------------------------|
-------------------------|-------------------------|--------------------------|
-------------------------|----------------------9--|--L-----------------------|
--7--7--7--5----4--------|--7--7--7--5----4-----9--|--L-----------------------|
-------------------7--5--|-------------------7--7--|--L--7--7--7--7--7--7--7--|


  E  Q    Q    E  Q       Q    E  E  E  E  E  E     E  Q    Q    E  Q     
-----------------------|-------------------------|-----------------------|
-----------------------|-------------------------|-----------------------|
-----------------------|-------------------------|-----------------------|
--9--6----6----6--7----|--9----------------------|--9--6----6----6--7----|
--9--6----6----6--7----|--9----------------------|--9--6----6----6--7----|
--7--4----4----4--5----|--7----7--7--7--7--7--7--|--7--4----4----4--5----|


  Q    E  E  E  E  E  E     E  Q    Q    E  Q       Q    E  E  E  E  E  E   
-------------------------|-----------------------|-------------------------|
-------------------------|-----------------------|-------------------------|
-------------------------|-----------------------|-------------------------|
--9----------------------|--9--6----6----6--7----|--9----------------------|
--9----------------------|--9--6----6----6--7----|--9----------------------|
--7----7--7--7--7--7--7--|--7--4----4----4--5----|--7----7--7--7--7--7--7--|


  E  Q    Q    E  Q       Q    E  Q.     Q       E  E  E  E  H          
-----------------------|----------------------|------------------------|
-----------------------|----------------------|------------------------|
-----------------------|--8----L--------------|--------5--6--8\--------|
--9--6----6----6--7----|--8----L--6------6----|--L--8------------------|
--9--6----6----6--7----|--6----L--6-----------|------------------------|
--7--4----4----4--5----|----------4-----------|------------------------|


  Q    E  Q.     Q       E  E  E  E  E  E  E  E     Q    E  Q.     Q     
----------------------|--------------------------|----------------------|
----------------------|--------------------------|----------------------|
--8----L---------8----|--L--6--5-----------------|--8----L--------------|
--8----L--6-----------|-----------8--6--5--------|--8----L--6------6----|
--6----L--6-----------|--------------------8-----|--6----L--6-----------|
----------4-----------|-----------------------5--|----------4-----------|


  E  E  E  E  H           Q    E  Q.     Q       E  E  E  E  E  E  E   E   
-----------------------|----------------------|---------------------------|
-----------------------|----------------------|---------------------------|
--------5--6--8--------|--8----L---------8----|--L--6--5--------------14--|
--L--8-----------------|--6----L--6-----------|-----------8--6--5---------|
-----------------------|--6----L--6-----------|--------------------8------|
-----------------------|----------4-----------|---------------------------|


                                                           |----3----|   
  Q     E   E   E   E   E   E      E   E   E   E   E   E   E    E    E   
-------------------------------|----------------------------------------|
-------------------------------|----------------------------------------|
--L----14--14--14--14--14--14--|--14--14--14--14--14--14--16h--17p--16--|
-------------------------------|----------------------------------------|
-------------------------------|----------------------------------------|
-------------------------------|----------------------------------------|


   |----3----|   |----3----|   |----3----|   |----3----|   
   E    E    E   E    E    E   E    E    E   E    E    E   
----------------------------------------------------------|
----------------------------------------------------------|
--14h--16p--15--12h--14p--12--11h--12p--11--11h--12p--11--|
----------------------------------------------------------|
----------------------------------------------------------|
----------------------------------------------------------|


                  |----3----|   
   H.             E    E    E   
-------------------------------|
-------------------------------|
-------------------------------|
--14b------------12h--14p--12--|
-------------------------------|
-------------------------------|


   |----3----|   |---3---|      |---3---|      |---3---|      
   E    E    E   S   S   S  E   S   S   S  E   S   S   S  E   
-------------------------------------------------------------|
-------------------------------------------------------------|
--11h--12h--14--11h-12p-11-----11h-12p-11-----11h-12p-11-----|
---------------------------14-------------14-------------14--|
-------------------------------------------------------------|
-------------------------------------------------------------|


           |---3---|   |---3---|               
   E   E   E   E   E   E   E   E   S  S  S  S  
----------------------12--13--12-----12-13-12-|
--------------12--13--------------15----------|
--11--12--14----------------------------------|
----------------------------------------------|
----------------------------------------------|
----------------------------------------------|


   |---3---|   |---3---|   |---3---|   |---3---|   
   E   E   E   E   E   E   E   E   E   E   E   E   
--15--13--12------12--13--15--13--12------12--13--|
--------------15----------------------15----------|
--------------------------------------------------|
--------------------------------------------------|
--------------------------------------------------|
--------------------------------------------------|


                 |---3---|                                         
   H         E   E   E   E   E     E.   S  E.   S  E.   S  E.   S  
--15b--------L--12--15--12--15--|--L---15-15---15-15---15-15---15-|
--------------------------------|---------------------------------|
--------------------------------|---------------------------------|
--------------------------------|---------------------------------|
--------------------------------|---------------------------------|
--------------------------------|---------------------------------|


                                                                 |---3---|   
   E.   S  E.   E.   S  S  S  S  E     E   Q     E   S  S  S  S  E   E   E   
--15---15-15---15---15--L-17-15-15--|--L--15----17--15-12-15-12-17--15--12--|
------------------------------------|---------------------------------------|
------------------------------------|---------------------------------------|
------------------------------------|---------------------------------------|
------------------------------------|---------------------------------------|
------------------------------------|---------------------------------------|


   H         E   S  E   S  S  S  
--15b--------L--15-17--17-15-17-|
--------------------------------|
--------------------------------|
--------------------------------|
--------------------------------|
--------------------------------|


                         |----3----|   |----3---|   
  S  S   S   S   E   E   E    E    E   E   E    E   
--L-17p-15h-17p-15--17--15p--12h--15------12h--15--|
--------------------------------------15-----------|
---------------------------------------------------|
---------------------------------------------------|
---------------------------------------------------|
---------------------------------------------------|


   |---3---|      |---3---|   |---3---|      |---3---|   
   S   S   S  E   E   E   E   S   S   S  E   E   E   E   
--12h-15p-12-----12-------------------------------------|
-------------15------15--13--13h-15p-13-12--13--12------|
----------------------------------------------------14--|
--------------------------------------------------------|
--------------------------------------------------------|
--------------------------------------------------------|


   |---3---|   |---3---|   |---3---|   |---3---|                         
   E   E   E   E   E   E   E   E   E   E   E   E      W                  
--------------------------------------12--13--15--|--15b----------------|
--13----------12----------12--13--15--------------|---------------------|
------15--14------14--12--------------------------|---------------------|
--------------------------------------------------|---------------------|
--------------------------------------------------|---------------------|
--------------------------------------------------|---------------------|


   W                    Q    E  E  E  E  E  E     E  E  E  E  S S E  E  E   
--15b----------------|--L-------------5-----5--|---------------------------|
---------------------|-------------------8-----|--8-----5------------------|
---------------------|-------7--5--7-----------|-----7-----8--7-5-7--5-----|
---------------------|-------------------------|------------------------7--|
---------------------|-------------------------|---------------------------|
---------------------|-------------------------|---------------------------|


  E  E  E  E  Q    E  E     E  E  E  E  E  E  E  E     H.           E  E   
-------------------------|--------------------------|---------------------|
-------------------------|--------------------------|---------------------|
--5--7--5-----5----------|-----------------------7--|--L------------L-----|
-----------7-------7--5--|-----------------------8--|--L------------L--5--|
-------------------------|--7--6--5--------5--------|---------------------|
-------------------------|-----------8--8-----8-----|---------------------|


               |--3--|                                                
  H.           E  E  E     S  S  S S  S  S S  S  S S  S  S S  S  S S  
------------------------|--------------------------------------------|
------------------------|--------------------------------------------|
------------------------|--0h-2h-4-0h-4h-5-0h-5h-7-0h-4h-5-0h-2h-4-0-|
--L------------5--3-----|--------------------------------------------|
---------------------5--|--------------------------------------------|
------------------------|--------------------------------------------|


  S  S  S S  S  S S  S  S S  S  S Q        H.            E   S  S  
----------------------------------------|-------------------------|
----------------------------------------|-------------------------|
--0h-2h-4-0h-4h-5-0h-5h-7-0h-4h-5-7b----|--L------------14--12----|
----------------------------------------|----------------------14-|
----------------------------------------|-------------------------|
----------------------------------------|-------------------------|


   E   E   S  S  E   E   S  S  E   E      S  S  E   E   S  S  E   E   S  S  E   
--------------------------------------|----------------------------------------|
--------------------------------------|----------------------------------------|
------14--12--------14--12--------14--|--12--------14--12--------14--12--------|
--12---------14-12---------14-12------|-----14-12---------14-12---------14-12--|
--------------------------------------|----------------------------------------|
--------------------------------------|----------------------------------------|


   E   S  S  E   E   S  S  E   E   S  S     E   E   S  S  E   H         
----------------------------------------|------------------------------|
----------------------------------------|------------------------------|
--14--12--------14--12--------14--12----|------14--12----12b--L--------|
---------14-12---------14-12---------14-|--12---------14---------------|
----------------------------------------|------------------------------|
----------------------------------------|------------------------------|


                                               |---3---|   
  Q     E   E  H            Q     E   Q    E   E   E   E   
-------15--13--L--------|---------------------------------|
------------------------|--------15-----------------------|
--L---------------------|--14--------14----L--14--12------|
------------------------|-----------------------------14--|
------------------------|---------------------------------|
------------------------|---------------------------------|


   Q      E   E   E   E   E   E      W                  
---------------------------------|---------------------|
--15-----------------------------|--13b----------------|
--13b----12----------------------|---------------------|
-------------14--12--------------|---------------------|
---------------------13--12------|---------------------|
-----------------------------15--|---------------------|


  E  E  E  Q    E  E  E     E  E  E  Q    E  E  E     E  E  E  Q    E  E  E   
-------------------------|-------------------------|-------------------------|
-------------------------|-------------------------|-------------------------|
-------------------------|-------------------------|-------------------------|
-------------------------|-------------------------|-------------------------|
--7--7--7--5----4--------|--7--7--7--5----4--------|--7--7--7--5----4--------|
-------------------7--5--|-------------------7--5--|-------------------7--5--|


  E  E  E  Q    E  E  E     E  E  E  E  E  E  E  E     E  E  E  E  E  E  E  E   
-------------------------|--------------------------|--------------------------|
-------------------------|--------------------------|--------------------------|
----------------------9--|--L-----9--------9-----9--|--------9--------9-----5--|
----------------------9--|--L-----9--------9-----9--|--L-----9--------9-----5--|
--7--7--7--5----4-----7--|--L--7--7--7--7--7--7--7--|-----7--7--7--7--7--7--3--|
-------------------7-----|--------------------------|--------------------------|


  E  E  E  E  E  E  E  E     E  E  E  E  E  E  E  E   
--------------------------|--------------------------|
--------------------------|--------------------------|
--L-----5--------5-----7--|--------7--------7-----9--|
--L-----5--------5-----7--|--------7--------7-----9--|
--L--3--3--3--3--3--3--5--|--L--5--5--5--5--5--5--7--|
--------------------------|--------------------------|


  E  E  E  E  E  E  E  E     E  E  E  E  E  E  E  E   
--------------------------|--------------------------|
--------------------------|--------------------------|
--L-----9--------9-----9--|--------9--------9-----5--|
--L-----9--------9-----9--|--L-----9--------9-----5--|
--L--7--7--7--7--7--7--7--|-----7--7--7--7--7--7--3--|
--------------------------|--------------------------|


  E  E  E  E  E  E  E  E     E  E  E  E  E  E  E  E   
--------------------------|--------------------------|
--------------------------|--------------------------|
--L-----5--------5-----7--|--------7--------7-----9--|
--L-----5--------5-----7--|--------7--------7-----9--|
--L--3--3--3--3--3--3--5--|--L--5--5--5--5--5--5--7--|
--------------------------|--------------------------|


  E  E  E  E  E  E  E  E     E  E  E  E  E  E  E  E   
--------------------------|--------------------------|
--------------------------|--------------------------|
--L-----9--------9-----9--|--------9--------9-----5--|
--L-----9--------9-----9--|--L-----9--------9-----5--|
--L--7--7--7--7--7--7--7--|-----7--7--7--7--7--7--3--|
--------------------------|--------------------------|


  E  E  E  E  E  E  E  E     E  E  E  E  E  E  E  E   
--------------------------|--------------------------|
--------------------------|--------------------------|
--L-----5--------5-----7--|--------7--------7-----9--|
--L-----5--------5-----7--|--------7--------7-----9--|
--L--3--3--3--3--3--3--5--|--L--5--5--5--5--5--5--7--|
--------------------------|--------------------------|


  E  E  E  E  E  E  E  E     E  E  E  E  E  E  E  E   
--------------------------|--------------------------|
--------------------------|--------------------------|
--L-----9--------9-----9--|--------9--------9-----5--|
--L-----9--------9-----9--|--L-----9--------9-----5--|
--L--7--7--7--7--7--7--7--|-----7--7--7--7--7--7--3--|
--------------------------|--------------------------|


  E  E  E  E  E  E  E  E     E  E  E  E  E  E  E  E     E  E  E  Q    E  E  E   
--------------------------|--------------------------|-------------------------|
--------------------------|--------------------------|-------------------------|
--L-----5--------5-----7--|--------7--------7--------|-------------------------|
--L-----5--------5-----7--|--------7--------7--------|-------------------------|
--L--3--3--3--3--3--3--5--|--L--5--5--5--5--5--5--5--|--7--7--7--5----4--------|
--------------------------|--------------------------|-------------------7--5--|


  E  E  E  Q    E  E  E     E  E  E  Q    E  E  E     E  E  E  Q    E  E  E   
-------------------------|-------------------------|-------------------------|
-------------------------|-------------------------|-------------------------|
-------------------------|-------------------------|-------------------------|
-------------------------|-------------------------|----------------------9--|
--7--7--7--5----4--------|--7--7--7--5----4--------|--7--7--7--5----4-----9--|
-------------------7--5--|-------------------7--5--|-------------------7--7--|


  E  E  E  E  E  E  E  E     E  Q    Q    E  Q       Q    E  E  E  E  E  E   
--------------------------|-----------------------|-------------------------|
--------------------------|-----------------------|-------------------------|
--------------------------|-----------------------|-------------------------|
--L-----------------------|--9--6----6----6--7----|--9----------------------|
--L-----------------------|--9--6----6----6--7----|--9----------------------|
--L--7--7--7--7--7--7--7--|--7--4----4----4--5----|--7----7--7--7--7--7--7--|


  E  Q    Q    E  Q       Q    E  E  E  E  E  E     E  Q    Q    E  Q     
-----------------------|-------------------------|-----------------------|
-----------------------|-------------------------|-----------------------|
-----------------------|-------------------------|-----------------------|
--9--6----6----6--7----|--9----------------------|--9--6----6----6--7----|
--9--6----6----6--7----|--9----------------------|--9--6----6----6--7----|
--7--4----4----4--5----|--7----7--7--7--7--7--7--|--7--4----4----4--5----|


  Q    E  E  E  E  E  E     E  Q    Q    E  Q       Q    E  Q.     Q     
-------------------------|-----------------------|----------------------|
-------------------------|-----------------------|----------------------|
-------------------------|-----------------------|--8----L--------------|
--9----------------------|--9--6----6----6--7----|--8----L--6------6----|
--9----------------------|--9--6----6----6--7----|--6----L--6-----------|
--7----7--7--7--7--7--7--|--7--4----4----4--5----|----------4-----------|


  E  E  E  E  H            Q    E  Q.     Q       E  E  E  E  E  E  E  E   
------------------------|----------------------|--------------------------|
------------------------|----------------------|--------------------------|
--------5--6--8\--------|--8----L---------8----|--L--6--5-----------------|
--L--8------------------|--8----L--6-----------|-----------8--6--5--------|
------------------------|--6----L--6-----------|--------------------8-----|
------------------------|----------4-----------|-----------------------5--|


  Q    E  Q.     Q       E  E  E  E  H            Q    E  Q.     Q     
----------------------|------------------------|----------------------|
----------------------|------------------------|----------------------|
--8----L--------------|--------5--6--8\--------|--8----L---------8----|
--8----L--6------6----|--L--8------------------|--8----L--6-----------|
--6----L--6-----------|------------------------|--6----L--6-----------|
----------4-----------|------------------------|----------4-----------|


  E  E  E  E  E  E  E  E     S S S S E  Q    Q    E     W                 
--------------------------|--------------------------|-------------------|
--------------------------|--------------------------|-------------------|
--L--6--5-----------------|--9-9-9-9-9-------5----7--|--L----------------|
-----------8--6--5--------|--9-9-9-9-9-------5----7--|--L----------------|
--------------------8-----|--7-7-7-7-7-------3----5--|--L----------------|
-----------------------5--|--------------------------|-------------------|


  S S S S E  Q    Q    E     W                   S S S S E  Q    Q    E   
--------------------------|-------------------|--------------------------|
--------------------------|-------------------|--------------------------|
--9-9-9-9-9-------5----7--|--L----------------|--9-9-9-9-9-------5----7--|
--9-9-9-9-9-------5----7--|--L----------------|--9-9-9-9-9-------5----7--|
--7-7-7-7-7-------3----5--|--L----------------|--7-7-7-7-7-------3----5--|
--------------------------|-------------------|--------------------------|


  W                   S S S S E  E  S S S S E  E     S S S S E  E   Q    Q     
-------------------|------------------------------|---------------------------|
-------------------|------------------------------|---------------------------|
--L----------------|--9-9-9-9-9-----5-5-5-5-5-----|--9-9-9-9-7--9\--L---------|
--L----------------|--9-9-9-9-9-----5-5-5-5-5-----|--9-9-9-9-7--9\--L---------|
--L----------------|--7-7-7-7-7-----3-3-3-3-3-----|--7-7-7-7-5--7\--L---------|
-------------------|------------------------------|---------------------------|





Comments


Popular Iron Maiden tabs & chords
Drifter Bass Tabs
Gangland Bass Tabs
Innocent Exile 3 Bass Tabs
22, Acacia Avenue Tabs
Caught Somewhere In Time (Intro) Tabs
Flight Of Icarus 3 Tabs
From Here To Eternity 1 Tabs
No More Lies 1 Tabs
Phantom Of The Opera Live Tabs
Two Minutes To Midnight Tabs


Song lyrics



↑ Back to top | Tablatures and chords are parodies/interpretations of the original songs. You may use it for private study, scholarship, research or language learning purposes only
© 2014 AZChords.com Contact us | Privacy policy | DMCA | Add/correct tabs | Request tabs | Top 50 tabs