» » »

Iron Maiden, Invaders Bass tabs (ver.1)

Artists:  A B C D E F G H I J K L M N O P Q R S T U V W X Y Z # 

Invaders Bass tabs (ver.1)

Iron Maiden Tabs
 Rating:
4/5 (4 votes)
Invaders lessons Tabs too difficult? Try these video lessons and learn fast
                "(2)
G------------5---7---9
D----------5---7---9--
A-7777-3-5------------
E--------------------- X3

G-----------------
D-----------------
A-7777-3333-55-3-5
E-----------------

G---------------------------------------------
D-------5-7-5---5-5--------------5-7-5--------
A---5H7-------7-----7-5-3----5H7-------7-33-55
E-5------------------------5------------------


Steve Harris does several variations of this riff
G---------------------------7----
D-----------------------7H9---9--
A-7777-7777-3333-555-77---------7
E--------------------------------

G----------
D----------
A-7-5-4----
E-------7-5 X4

G----------------
D----------------
A----------------
E-7777-7777-4-5-6 X4

G---------5-6-8------8-6-5----------
D-----6-8------------------8-6-5----
A-6-------------6----------------8-6
E---4-------------4----------------- X2

G----------
D----------
A-7-5-4----
E-------7-5 X4

G---------------------------7----
D-----------------------7H9---9--
A-7777-7777-3333-555-77---------7
E--------------------------------

G----------------
D----------------
A----------------
E-7777-7777-4-5-6 X4

G---------5-6-8------8-6-5----------
D-----6-8------------------8-6-5----
A-6-------------6----------------8-6
E---4-------------4----------------- X2

G---------------------------------------------
D-------5-7-5---5-5--------------5-7-5--------
A---5H7-------7-----7-5-3----5H7-------7-33-55
E-5------------------------5------------------

G--------
D-3-2----
A-----5-3
E-------- X5

G--------
D-3-2----
A-----5--
E-------3
"            
Submit corrections

comments powered by Disqus
↑ Back to top | Iron Maiden Bass for Invaders. Lyrics for acoustic guitar and electric guitar. Tablatures and chords are parodies/interpretations of the original songs. You may use it for private study, scholarship, research or language learning purposes only