» » »

Genghis Khan Bass tabs (ver.1)

Artists:  A B C D E F G H I J K L M N O P Q R S T U V W X Y Z # 

Genghis Khan Bass tabs (ver.1)

Iron Maiden
Rating:
0/5 (0 votes)

Hard to play? Try these video lessons and learn fast.
                                               GENGHIS KHAN
                               IRON MAIDEN
                                 KILLERS
                                   1981

THIS SONG ITS JUST DIFFICULT BECOUSE STEVE´S PLAYS IT VERY FAST...

INTRO:
-----------------------------------------------------------------------------|
-0-0-0-7-7-7-5-5-5-4-4-4-2-2-2-0-0-0-----------------------------------------|
-------------------------------------3-3-3-5-3-0-----------------------------| X2
-------------------------------------------------1-1-1--3-3-3--5-5-5--8-8-8--|

---7-7-7-7--------------------|----7-7-7-7-----------------|
-0---------5--7--5---3--5--3--|--0---------5--7--5--3------|  X2
------------------------------|----------------------------|
------------------------------|----------------------------|

-------------------------------------|------------------------------|
-------------------------------------|------------------------------|
--0--3--3--3--3---5--7--5---3--5--3--|--0--3--3--3--3---5--7--5-----|  X2
-------------------------------------|--------------------------3---|

---7-7-7-7--------------------|----7-7-7-7-------------|
-0---------5--7--5---3--5--3--|--0---------5--7--5--3--| X2
------------------------------|------------------------|
------------------------------|------------------------|

-------------------------------------|------------------------------|
-------------------------------------|------------------------------|
--0--3--3--3--3---5--7--5---3--5--3--|--0--3--3--3--3---5--7--5-----|  X2
-------------------------------------|--------------------------3---|

-----------------------------------------------------------------|
-0--5-5-5-5----7----0--8-8-8-7---5-----0--8-8-8-7---5---3--2-----|
-------------------------------------------------------------3---|
-----------------------------------------------------------------|

-------------------|
-0--8-8-8-7----5---|
-------------------|
-------------------|

---------------|-------------------|
-0-0--3-2---0--|--0-3-2------------|
----------3----|--------3-0---0-2--|
---------------|-------------------|

--------------------|
----0-2-2-2-3-2-----|
-3---------------3--|
--------------------|

---------------|------------------|
-0-0--3-2---0--|-0-3-2------------|
----------3----|------3-0---0-2---|
---------------|------------------|

--------------------|
----0-2-2-2-3-2-----|
-3---------------3--|
--------------------|

------------------|--------------------|----------------------|
-0---0--3-2--0-5--|--------0-----------|-2--0--2---2--3--2----|
------------------|--5-2-3---3---3--3--|-------------------3--| X2
------------------|--------------------|----------------------|

------------------|--------------------------|
------------------|--------------------------|
--0---7--5--3--0--|-0--3--2--0---7--5--0--3--|
------------------|--------------------------|

-----------------------------------|------------------------------|
-----------------------------------|--0---0--3--2--0--7--5--0--3--|
--0----0--3--2---0-----0--3--2-----|------------------------------|
---------------3----------------3--|------------------------------|

-----------------------------------|------------------------------|
-----------------------------------|------------------------------|
--0----0--3--2---0-----0--3--2-----|--0---0--3--2--0--7--5--0--3--|
---------------3----------------3--|------------------------------|

-----------------------------------|------------------------------|
-----------------------------------|--0---0--3--2--0--7--5--0--3--|
--0----0--3--2---0-----0--3--2-----|------------------------------|
---------------3----------------3--|------------------------------|

-----------------------------------|------------------------------|
-----------------------------------|------------------------------|
--0----0--3--2---0-----0--3--2-----|--0---0--3--2--0--7--5--0--3--|
---------------3----------------3--|------------------------------|

--------------------------------------------------------------------------|
----------------------------------0---0--3--2--------------0-2-2-2-3-2----|
--0---0--3--2---0----0--3--2------------------0---0--2---3-------------3--|
--------------3--------------3--------------------------------------------|

-----------------------------------------------------------|
--0---0--3--2---0----0--3--2----------------0-2-2-2-3-2----|
--------------3--------------3--0--0--2---3-------------3--|
-----------------------------------------------------------|

------------------------------0-----------------------------------|
--0---0--3--2--0--5----5--2--3---3--3--3----2--0--2--2--3--2---0--|
-------------------------------------------------------------3----|  X2
------------------------------------------------------------------|

---------------------------------------------------------------|
------------------------5-4-2-0-------------------------3-2-0--|
--7--7-7-7--7-7-7--7-7-------------3--3-3-3--3-3-3--3-3--------|
---------------------------------------------------------------|

----------------------------------------------------------|
---------------------------------------------3-2----------|
--0--0-0-0--0-0-0--0-0-0-2---3--3-3-3--3-3-3-----2-3-2----|
-------------------------------------------------------2--|

------------------------------------------------------------|
------------------------------------------------------------|
------------------------------------------------------------|
-0--0-0-0--0-0-0--0-0-0--0-0---0--0-0-0--0-0-0--0-0-0--0-0--|

--------------------------------------------------------------|
------------------------5-4-5-4------------------------3-2----|
--7--7-7-7--7-7-7--7-7------------3--3-3-3--3-3-3--3-3-----3--|
--------------------------------------------------------------|

------------------------------------------------------------|
-------------------------------------------3-2--------------|
--0--0-0-0--0-0-0--0-0-0-2---3--3-3-3--3-3-----3-2-3-2-0----|
---------------------------------------------------------3--|

---------------------------------------------------------------|
--------------------------------------------------------5-4-5--|
-------------------------2---------7--7-7-7--7-7-7--7-7--------|
--0--0-0-0--0-0--3-2-3-2---3-2-3-------------------------------|

---------------------------------------------------------|
-----------------------3-2-------------------------------|
--3--3-3-3--3-3-3--3-3-----3---0--0-0-0--0-0-0--0-0-0-2--|
---------------------------------------------------------|

--------------------------------------------------------------|
---------------3-2--------------------------------------------|
--3--3-3-3--3------3-2-3-2------------------------------------|
---------------------------3-0---0--0-0-0--0-0-0--0-0-0--0-0--|

-------------------------------|
-------------------------------|
-------------------------------|
--0--0-0-0--0-0-0--0-0-0--0-0--|

-------------------------------------------------|
-------------------------------------------------|
--7---5---3---2---0--2---7---5---3---2---0--2----|
----------------------------------------------0--|

THATS IT! ENJOY!
            
Hard to play? Try these video lessons and learn fast. | Correct




comments powered by Disqus
↑ Back to top | Tablatures and chords are parodies/interpretations of the original songs. You may use it for private study, scholarship, research or language learning purposes only