>
 >
Genghis Khan

Genghis Khan Guitar Tabs

Iron Maiden - Genghis Khan chords, tabs, tablatures, lyrics

Guitar lessons | Add/correct | Request | Top 50 tabs Artists:  A B C D E F G H I J K L M N O P Q R S T U V W X Y Z 0-9

Genghis Khan Guitar Tabs – Iron Maiden

CD, Sheet music, Poster

Do you like Genghis Khan? Share with your friends now
Bass TabsDrum TabsTabsTabs v2
Iron Maiden  Genghis Khan


Tablature legend:
h    - hammer-on
p    - pull-off
/    - slide up
\    - slide down
~    - vibrato
?(?)  bend (to what is in the brackets)
\\\  - slower slide

Intro:

Both guitars
e|----------------------------------------------|
B|----------------------------------------------|
G|----------------------------------------------|
D|-0-0-0-7-7-7-5-5-5-4-4-4-2-2-2----------------|
A|-------------------------------5-5-5--3h5p3~--|
E|----------------------------------------------|

e|---------------------------------------|
B|---------------------------------------|
G|---------------------------------------|
D|--------------------2--2--2--5--2--5---|
A|--3--3--3--5--5--5--0--0--0--3--0--3---|
E|--1--1--1--3--3--3---------------------|
Repeat!

Riff I:

e|--------------------------|------------------------|
B|--------------------------|------------------------|
G|-7--7-7-7--7--9--7-5/7\5--|--7--7-7-7--7--9--7--5--|
D|-0--0-0-0--5--7--5-3/5\3--|--0--0-0-0--5--7--5--3--|
A|--------------------------|------------------------|
E|--------------------------|------------------------|

e|--------------------------|------------------------|
B|--------------------------|------------------------|
G|--------------------------|------------------------|
D|-2--5-5-5--7--9--7-5/7\5--|--2--5-5-5--7--9--7-----|
A|-0--3-3-3--5--7--5-3/5\3--|--0--3-3-3--5--7--5--5--|
E|--------------------------|---------------------3--|
Repeat!

Riff II:
                                                 (x3)
e|-------------------------|------------------------|
B|-------------------------|------------------------|
G|-7----7--9---9/10--9--7--|-9/10--9--7----5--4-----|
D|-0h5--5--7---7/8---7--5--|-7/8---7--5----3--2--5--|
A|-------------------------|---------------------3--|
E|-------------------------|------------------------|

e|-------------------------|-------------|
B|-------------------------|-------------|
G|-7----7--9---9/10--9--7--|-9/10--9--7--|
D|-0h5--5--7---7/8---7--5--|-7/8---7--5--|
A|-------------------------|-------------|
E|-------------------------|-------------|

Riff III:

e|--------------------|---------------------|--------------------|---------------------|
B|--------------------|---------------------|--------------------|---------------------|
G|--------------------|---------------------|--------------------|---------------------|
D|-0--3-2-0--0--3-2-0-|-----------2--3-2-0--|-0--3-2-0--0--3-2-0-|-----------2--3-2-0--|
A|--------------------|-0--3-2-0------------|--------------------|-0--3-2-0------------|
E|--------------------|---------------------|--------------------|---------------------|

e|--------------------------------------|--------------------------------------|
B|--------------------------------------|--------------------------------------|
G|----------0--------2--------0---------|----------0--------2--------0---------|
D|-0--3-2-0----3-2-0----3-2-0----3-2-0--|-0--3-2-0----3-2-0----3-2-0----3-2-0--|
A|--------------------------------------|--------------------------------------|
E|--------------------------------------|--------------------------------------|
Repeat!

Riff IV:

  Gtr I                         (x2)
e|---------------------------------|
B|---------------------------------|
G|---------------------------------|
D|---------------------------------|
A|-0-0--5--0--7--0--5--0---3-2-0---|
E|---------------------------------|
 |
 |Gtr II                        (x2)
e|---------------------------------|
B|---------------------------------|
G|---------------------------------|
D|------------------2--2-----------|
A|-0-0-3-2-0-3-2-0-----0-----------|
E|---------------------------------|

  Gtr I
e|---------------------------------|
B|---------------------------------|
G|---------------------------------|
D|-0-0--5--0--7--0--5--0---3-2-0---|
A|---------------------------------|
E|---------------------------------|
 |
 |Gtr II
e|---------------------------------|
B|---------------------------------|
G|---------------------------------|
D|------------------7--7-----------|
A|-5-5-8-7-5-8-7-5-----5-----------|
E|---------------------------------|

  Gtr I                         (x3)
e|---------------------------------|
B|---------------------------------|
G|---------------------------------|
D|---------------------------------|
A|-0-0--5--0--7--0--5--0---3-2-0---|
E|---------------------------------|
 |
 |Gtr II                        (x3)
e|---------------------------------|
B|---------------------------------|
G|---------------------------------|
D|------------------2--2-----------|
A|-0-0-3-2-0-3-2-0-----0-----------|
E|---------------------------------|

  Gtr I
e|---------------------------------|
B|---------------------------------|
G|---------------------------------|
D|-0-0--5--0--7--0--5--0---3-2-0---|
A|---------------------------------|
E|---------------------------------|
 |
 |Gtr II
e|---------------------------------|
B|---------------------------------|
G|---------------------------------|
D|------------------7--7-----------|
A|-5-5-8-7-5-8-7-5-----5-----------|
E|---------------------------------|

  Gtr I
e|---------------------------------|
B|---------------------------------|
G|---------------------------------|
D|---------------------------------|
A|-0-0--5--0--7--0--5--0---3-2-0---|
E|---------------------------------|
 |
 |Gtr II
e|---------------------------------|
B|---------------------------------|
G|---------------------------------|
D|------------------2--2-----------|
A|-0-0-3-2-0-3-2-0-----0-----------|
E|---------------------------------|

Riff V:

e|--------------------|------------------|--------------------|------------------|
B|--------------------|------------------|--------------------|------------------|
G|--------------------|------------------|--------------------|------------------|
D|-3-2-0--0--3-2-0----|--------2--3-2-0--|-3-2-0--0--3-2-0----|--------2--3-2-0--|
A|------------------0-|-3-2-0------------|------------------0-|-3-2-0------------|
E|--------------------|------------------|--------------------|------------------|

e|--------------------------------------|--------------------------------------|
B|--------------------------------------|--------------------------------------|
G|----------0--------2--------0---------|----------0--------2--------0---------|
D|-0--3-2-0----3-2-0----3-2-0----3-2-0--|-0--3-2-0----3-2-0----3-2-0----3-2-0--|
A|--------------------------------------|--------------------------------------|
E|--------------------------------------|--------------------------------------|

Riff VI:

Gtr I (plays this under Gtr II, until the solo)
e|--------------------------------|-----------------------------|
B|--------------------------------|-----------------------------|
G|-7---9--9-9-9--9-9-9--9-9-9\\\--|--5--5-5-5--5-5-5--5-5-5\\\--|
D|-7---9--9-9-9--9-9-9--9-9-9\\\--|--5--5-5-5--5-5-5--5-5-5\\\--|
A|-5---7--7-7-7--7-7-7--7-7-7\\\--|--3--3-3-3--3-3-3--3-3-3\\\--|
E|--------------------------------|-----------------------------|

e|---------------------------|--------------------------------|
B|---------------------------|--------------------------------|
G|-2--2-2-2--2-2-2--2-2-2-4--|---5--5-5-5--5-5-5--5-5-5--5-5--|
D|-2--2-2-2--2-2-2--2-2-2-4--|---5--5-5-5--5-5-5--5-5-5--5-5--|
A|-0--0-0-0--0-0-0--0-0-0-2--|---3--3-3-3--3-3-3--3-3-3--3-3--|
E|---------------------------|--------------------------------|

e|-----------------------------------------------------|
B|-----------------------------------------------------|
G|-----------------------------------------------------|
D|-2--2-2-2--2-2-2--2-2-2--2-2-2--2-2-2--2-2-2--2-2-2--|
A|-2--2-2-2--2-2-2--2-2-2--2-2-2--2-2-2--2-2-2--2-2-2--|
E|-0--0-0-0--0-0-0--0-0-0--0-0-0--0-0-0--0-0-0--0-0-0--|

e|----------------------------|-----------------------------|
B|----------------------------|-----------------------------|
G|-9--9-9-9--9-9-9--9-9-9\\\--|--5--5-5-5--5-5-5--5-5-5\\\--|
D|-9--9-9-9--9-9-9--9-9-9\\\--|--5--5-5-5--5-5-5--5-5-5\\\--|
A|-7--7-7-7--7-7-7--7-7-7\\\--|--3--3-3-3--3-3-3--3-3-3\\\--|
E|----------------------------|-----------------------------|

e|---------------------------|--------------------------------|
B|---------------------------|--------------------------------|
G|-2--2-2-2--2-2-2--2-2-2-4--|---5--5-5-5--5-5-5--5-5-5--5-5--|
D|-2--2-2-2--2-2-2--2-2-2-4--|---5--5-5-5--5-5-5--5-5-5--5-5--|
A|-0--0-0-0--0-0-0--0-0-0-2--|---3--3-3-3--3-3-3--3-3-3--3-3--|
E|---------------------------|--------------------------------|

e|-----------------------------------------------------|
B|-----------------------------------------------------|
G|-----------------------------------------------------|
D|-2--2-2-2--2-2-2--2-2-2--2-2-2--2-2-2--2-2-2--2-2-2--|
A|-2--2-2-2--2-2-2--2-2-2--2-2-2--2-2-2--2-2-2--2-2-2--|
E|-0--0-0-0--0-0-0--0-0-0--0-0-0--0-0-0--0-0-0--0-0-0--|

Gtr II(plays this until solo):
e|--------------------------------------|----------------------------------|
B|--------------------------------------|----------------------------------|
G|-------------4---------------4--------|---------5---------------5--------|
D|-------5-4-5---5-4-5---5-4-5---5-4-5--|---5-4-5---5-4-5---5-4-5---5-4-5--|
A|-----7---------------7----------------|-7---------------7----------------|
E|--------------------------------------|----------------------------------|
Repeat!

e|----------------------------------|----------------------------------|
B|----------------------------------|----------------------------------|
G|---------4---------------4--------|---------4---------------4--------|
D|---5-4-5---5-4-5---5-4-5---5-4-5--|---5-4-5---5-4-5---5-4-5---5-4-5--|
A|-7---------------7----------------|-7---------------7----------------|
E|----------------------------------|----------------------------------|
Repeat all the above!

Solo Rhythm: (same as Riff VI by Gtr II)

Solo (Riff VII):

  Gtr I
e|-17(19)~~~~~-15h17p15-15~~~~~~~~~~-14h15p14-12~~~~~~~~~~-10h12p10-8~~~~~~~~~~---------|
B|--------------------------------------------------------------------------------------|
G|--------------------------------------------------------------------------------------|
D|--------------------------------------------------------------------------------------|
A|--------------------------------------------------------------------------------------|
E|--------------------------------------------------------------------------------------|
 |
 |Gtr III
e|-------17(19)~~~~~~~~~~-15h17p15-15~~~~~~~~~~-14h15p14-12~~~~~~~~~-10h12p10-8~~~~~~---|
B|--------------------------------------------------------------------------------------|
G|--------------------------------------------------------------------------------------|
D|--------------------------------------------------------------------------------------|
A|--------------------------------------------------------------------------------------|
E|--------------------------------------------------------------------------------------|

Gtr I
e|---/-7-\-----/-7-\-------|
B|-------------------------|
G|-------------------------|
D|-------------------------|
A|-------------------------|
E|-------------------------|
 |
 |Gtr III
e|--------/-7-\------------|
B|-------------------------|
G|-------------------------|
D|-------------------------|
A|-------------------------|
E|-------------------------|
Repeat!

Riff VIII:

Gtr I
e|--------------------------------------------------------------------------------------|
B|--------------------------------------------------------------------------------------|
G|-9-------7-------5-------4-----------9-------7-------5-------4------------------------|
D|-9-------7-------5-------4-------5-7-9-------7-------5-------4-------5-7-9------------|
A|-7-------5-------3-------2-------5-7-7-------5-------3-------2-------5-7-9------------|
E|---------------------------------3-5---------------------------------3-5-7------------|

Gtr II                           (x8)
e|----------------------------------|
B|----------------------------------|
G|---------4---------------4--------|
D|---5-4-5---5-4-5---5-4-5---5-4-5--|
A|-7---------------7----------------|
E|----------------------------------|

e|----------------------------------------|-------------------------|
B|----------------------------------------|-----7~------------------|
G|---------4------------------------------|-------------------------|
D|---5-4-5---5-4-5---5--4--5--7--5--4--5--|---5---------------------|
A|-7---------------7----------------------|-7-----------------------|
E|----------------------------------------|-------------------------|

Enjoy!





Comments


Popular Iron Maiden tabs & chords
Legacy Bass Tabs
2 Minutes To Midnight 6 Tabs
Brave New World Tabs
Fear Of The Dark (Intro) Tabs
Fear Of The Darks (Solo) Tabs
Hallowed By Thy Name Tabs
Holy Smoke Tabs
Judgement Of Heaven Tabs
Lightning Strikes Twice Tabs
Weekend Warrior 1 Tabs


Song lyrics



↑ Back to top | Tablatures and chords are parodies/interpretations of the original songs. You may use it for private study, scholarship, research or language learning purposes only
© 2014 AZChords.com Contact us | Privacy policy | DMCA | Add/correct tabs | Request tabs | Top 50 tabs