» » »

Iron Maiden, Deja Vu Tabs (ver.3)

Artists:  A B C D E F G H I J K L M N O P Q R S T U V W X Y Z # 

Deja Vu Tabs (ver.3)

Iron Maiden Tabs
 Rating:
4/5 (4 votes)
Deja Vu lessons Tabs too difficult? Try these video lessons and learn fast
1
                (Solo)
DEJA VU
Iron Maiden

This is the clean electric rhythm part for the intro solo:

E----------||--------------------------|--------------------------|-----|
B----------||-----------0--1--3--1-----|-----------0--1--3--1-----|-----|
G---4:-----||--------2--2--2--2--2-----|--------2--2--2--2--2-----|-----|
D---4:-----||-----2--2--2--2--2--2-----|-----2--2--2--2--2--2-----|-----|
A----------||--0-----------------------|--------------------------|-----|
E-------0--||-----------------------0--|--1--------------------1--|-----|

E------------------------|-----------------------------|----------------|
B---------------3--------|-----------0--1--3--1--0-----|----------------|
G------------0--2--0--0--|--------2--2--2--2--2--2-----|----------------|
D---------2-----0--2--0--|-----2-----2--2--2--2--2-----|----------------|
A------2-----------3--2--|--0--------------------------|----------------|
E---0--------------------|--------------------------0--|----------------|

E---------------------------|--------------------------|----------------|
B------------0--1--3--1-----|-----------0--1--3--1-----|----------------|
G---------2--2--2--2--2-----|--------2--2--2--2--2-----|----------------|
D------2--2--2--2--2--2-----|-----2--2--2--2--2--2-----|----------------|
A---0-----------------------|--------------------------|----------------|
E------------------------0--|--1--------------------1--|----------------|

E------------------------|---------------------------------------|------|
B---------------3--------|-----------0--1--3--3--3--1--0h1--0h1--|------|
G------------0--2--0--0--|--------2--2--2--2--2--2--2--2----2----|------|
D---------2-----0--2--0--|-----2-----2--2--2--2--2--2--2----2----|------|
A------2-----------3--2--|--0------------------------------------|------|
E---0--------------------|---------------------------------------|------|

E------|----------------------------------------------------------------|
B---0--|----------------------------------------------------------------|
G---2--|----------------------------------------------------------------|
D---2--|----------------------------------------------------------------|
A---0--|----------------------------------------------------------------|
E------|----------------------------------------------------------------|

This is the intro solo:

E------------------------------|--------------------------|-------------|
B-------15^--15^--15^--15--13--|--12--13--12------12--13--|-------------|
G---4:-------------------------|--------------14----------|-------------|
D---4:-------------------------|--------------------------|-------------|
A------------------------------|--------------------------|-------------|
E------------------------------|--------------------------|-------------|

E----------------------------------|--------------------15^--|----------|
B---15--12--13--15--15^--(15)--13--|--12h13p12------13-------|----------|
G----------------------------------|------------14-----------|----------|
D----------------------------------|-------------------------|----------|
A----------------------------------|-------------------------|----------|
E----------------------------------|-------------------------|----------|

E---(15)--15^--15^--15^--15^--15^--|------------------------------------|
B----------------------------------|------------------------------------|
G----------------------------------|------------------------------------|
D----------------------------------|------------------------------------|
A----------------------------------|------------------------------------|
E----------------------------------|------------------------------------|

E---15^--15--13--12h13p12-------------|---------------------------------|
B--------------------------15^--(15)--|---------------------------------|
G-------------------------------------|---------------------------------|
D-------------------------------------|---------------------------------|
A-------------------------------------|---------------------------------|
E-------------------------------------|---------------------------------|

E---------------------------------------------------------|-------------|
B---13p12h13/15p13h15--15/17p15\13h15--13h15p13\12h13p12--|-------------|
G---------------------------------------------------------|-------------|
D---------------------------------------------------------|-------------|
A---------------------------------------------------------|-------------|
E---------------------------------------------------------|-------------|

E--------------------------------------------------|---------|----------|
B-------------------------------13--15--13--12h13--|--12~~~--|----------|
G---14------------------12--14---------------------|---------|----------|
D-------14--12--10--14-----------------------------|---------|----------|
A--------------------------------------------------|---------|----------|
E--------------------------------------------------|---------|----------|


==                       TABLATURE EXPLANATION                        ==

----------                ----------                ----t---|
----5h8--- Hammeron       ----(8)--- Ghost          ----6---| Tap
----------                ---------- Note           --------|
----5p8--- Pulloff        ----------                --------|

----------                ----------                -----p--|
----5/8--- Slide Up       -----x---- Dead           -----7--| Pop
----------                ---------- Note           --s-----|
----5\8--- Slide Down     ----------                --5-----| Slap

----------                ||------|| Repeat         --------|
----5~~~-- Vibrato        ||*----*||                ---5^---| Bend
----------                ||*----*||                --------|
----------                ||------||                --------|

----------                ----------                --------|
-4:------- Time           ----------                --------|
-4:------- Signature      ----------                --------|
----------                ----------                --------|
            
Submit corrections

comments powered by Disqus
↑ Back to top | Iron Maiden Tabs for Deja Vu. Lyrics for acoustic guitar and electric guitar. 1 Tablatures and chords are parodies/interpretations of the original songs. You may use it for private study, scholarship, research or language learning purposes only