» » »

Iron Maiden, Deja Vu Bass tabs (ver.1)

Artists:  A B C D E F G H I J K L M N O P Q R S T U V W X Y Z # 

Deja Vu Bass tabs (ver.1)

Iron Maiden Tabs
Rating:
0/5 (0 votes)
Hard to play? Try these video lessons and learn fast.
                
INTRO 1

G||--------------7----------------7----------9---------------------|
D||---7---7-9-10---10---------------10-----9-----/12-10-9-10-9-7---|
A||-7---7-------------7-8---8-7-8------8-7-----5-------------------|
E||-----------------------8----------------------------------------|

|--------------7----------------7----------9-------------------------|
|---7---7-9-10---10---------------10-----9-----/12-14-12-10-12-10-7--|
|-7---7-------------7-8---8-7-8------8-7-----5-----------------------|
|-----------------------8--------------------------------------------|

|------------------------------------||
|-9-10-12-12-12-10-9-10-9-10-9-10h9--||
|------------------------------------||
|------------------------------------||

INTRO 2

G||----------------------------------------------------------------------|
D||----------------------------------------------------------------------|
A||-888888888888888-3444444444444444--666666666666666-8888-666666666666--|
E||----------------------------------6-----------------------------------|x2

INTRO 3

G||--------------------------------------------------------------|
D||--<-----------8-10-<---5---5-6-8-<---3---3-4-6--6-5-3--8-6-5--|
A||--8-8-11-8-11------6-6---6-------4-4---4----------------------|
E||--------------------------------------------------------------| x2

VERSE

G||------------------------------------------------------------|
D||------------------------------------------------------------|
A||-8888888888888888888888888888-6666666666666666666666666666--|
E||------------------------------------------------------------| x2

G||-----------------------------------------------------------------------------------|
D||-----------------------------------------------------------------------------------|
A||--4444444-6666666-888888888888888-4444444-6666666-8888888-6666666-4444444-6666666--|
E||-----------------------------------------------------------------------------------|

PRECHORUS

G||--------------------------------------------------------------------|
D||--------------------------------------------------------------------|
A||--88888888888888-666666666666666-4444444-6666666-88888888888888666--|
E||--------------------------------------------------------------------|

CHORUS

G||--------------------------------------------------------------------------------------|
D||--------------------------------------------------------------------------------------|
A||--88888888888888-666-88888888888888-666666-88888888888888-666-88888888888888-444-666--|
E||--------------------------------------------------------------------------------------|

INTRO 2

BREAK 1

G||-----------------------------------------|
D||----------------356-3333-653--3333-653---|
A||--4444444444-346------------6---------6--|
E||-----------------------------------------|

BREAK 2

G||-----------------------------------------------------.-----------------.--|
D||-------.-..-.-..-.-------.-..-.-..-.-------.-..-.-..-6-------.-..-.-..-6--|
A||--4444-4-44-4-44-6--4444-4-44-4-44-6--8888-8-68-8-88----8888-8-68-8-88----|
E||--------------------------------------------------------------------------| x

BREAK 3

G||-----------------------------------------------------------------------|
D||------------65-65------------65-65------------65-65------------65-65---|
A||--444444444------6-444444444------6-888888888------6-888888888------6--|
E||-----------------------------------------------------------------------| x

UP THE IRONS!!
            

comments powered by Disqus
↑ Back to top | Iron Maiden Bass for Deja Vu. Lyrics for acoustic guitar and electric guitar. Tablatures and chords are parodies/interpretations of the original songs. You may use it for private study, scholarship, research or language learning purposes only