>
 >
Charlotte The Harlot 3

Charlotte The Harlot 3 Bass Tabs

Iron Maiden - Charlotte The Harlot 3 chords, tabs, tablatures, lyrics

Guitar lessons | Add/correct | Request | Top 50 tabs Artists:  A B C D E F G H I J K L M N O P Q R S T U V W X Y Z 0-9

Charlotte The Harlot 3 Bass Tabs – Iron Maiden

CD, Sheet music, Poster

Do you like Charlotte The Harlot 3? Share with your friends now
Bass TabsBass Tabs v2Bass Tabs v3TabsTabs v2
IRON MAIDEN
Charlotte the harlot



                                                                          
G||--2------0------------|------------------2--2--|--2------0------------|
D||--------------4----2--|----0----0--0--2--------|--------------4----2--|
A||----------------------|------------------------|----------------------|
E||----------------------|------------------------|----------------------|


                                                                   
---------------------|--2------0------------|---------------------|
----0--2-------------|--------------4----2--|----0--2-------------|
------------0--------|----------------------|------------0--------|
---------------------|----------------------|---------------------|


                                                                       
----------------------|------------------------|----------------------|
----------------------|----0----0--2--0--------|----------------------|
--0-------------------|------------------------|--0-------------------|
---------3----2----0--|------------------2--3--|---------3----2----0--|


                                                                    
---------------------|----------------------|----------------------|
---------------------|----------------------|----------------------|
----2--3----0--------|--0-------------------|----2--3-----0--------|
---------------------|---------3----2----0--|----------------------|


                                                                     
----------------------|----------------------|-------------------2--|
----------------------|----------------------|----------------------|
--0-------------------|--0-------------------|--0-------------------|
---------3----2----3--|---------3----2----3--|---------3----2-------|


                                                                 
----0-----------------|----------0---------|--------------------|
-------4-----------0--|-----------------0--|-----------------0--|
----------------------|--------------------|--------------------|
------------0---------|--------------------|----------0---------|


                                                                   
----------0---------|----------------------|---------0----0-------|
-----------------0--|----------2--2--2--2--|----2--------------0--|
--------------------|----------------------|----------------------|
--------------------|----------------------|----------------------|


                                                                       
-----------------------|---------0----0-------|-----------------------|
--0--------2--2--2--2--|----2--------------0--|--0--------2--2--2--2--|
-----------------------|----------------------|-----------------------|
-----------------------|----------------------|-----------------------|


                                                                      
---------0----0-------|-----------------------|---------0----0-------|
----2--------------0--|--0--------2--2--2--2--|----2--------------0--|
----------------------|-----------------------|----------------------|
----------------------|-----------------------|----------------------|


                                                                       
-----------------------|---------0----0-------|-----------------------|
--0--------2--2--2--2--|----2--------------0--|--0--------2--2--2--2--|
-----------------------|----------------------|-----------------------|
-----------------------|----------------------|-----------------------|


                                                                      
---------0----0-------|-----------------------|---------0----0-------|
----2--------------0--|--0--------2--2--2--2--|----2--------------0--|
----------------------|-----------------------|----------------------|
----------------------|-----------------------|----------------------|


                                                                       
-----------------------|---------0----0-------|-----------------------|
--0--------2--2--2--2--|----2--------------0--|--0--------2--2--0--2--|
-----------------------|----------------------|-----------------------|
-----------------------|----------------------|-----------------------|


                                                                      
---------0----0--2----|-----------------------|----------------------|
----2-----------------|--0--------0--0-----0--|----0-----------------|
----------------------|-----------------3-----|---------2----0-------|
----------------------|-----------------------|-----------------3----|


                                                                       
-----------------------|---------0----0--2----|-----------------------|
--2--------2--2--0--2--|----2-----------------|--0--------0--0-----0--|
-----------------------|----------------------|-----------------3-----|
-----------------------|----------------------|-----------------------|


                                                                     
----------------------|---------------------|---------0----0--0-----|
----0-----------------|--2--------2----2----|----2---------------0--|
---------2----0-------|---------------------|-----------------------|
-----------------3----|---------------------|-----------------------|


                                                                       
---------------------|--2------------------|--2----4--2--0------------|
--0----0------2------|---------2----2------|----------------2----2----|
---------------------|---------------------|--------------------------|
---------------------|---------------------|--------------------------|


                                                                         
---------0----0--0-----|-----------4-2-0----0--|--2--0------------------|
----2---------------0--|--0--------------2-----|------------2--2--2--2--|
-----------------------|-----------------------|------------------------|
-----------------------|-----------------------|------------------------|


                                                                      
---------0----0-------|-----------------------|---------0----0-------|
----2--------------0--|--0--------2--2--2--2--|----2--------------0--|
----------------------|-----------------------|----------------------|
----------------------|-----------------------|----------------------|


                                                                       
-----------------------|---------0----0-------|-----------------------|
--0--------2--2--2--2--|----2--------------0--|--0--------2--2--2--2--|
-----------------------|----------------------|-----------------------|
-----------------------|----------------------|-----------------------|


                                                                      
---------0----0-------|-----------------------|---------0----0-------|
----2--------------0--|--0--------2--2--2--2--|----2--------------0--|
----------------------|-----------------------|----------------------|
----------------------|-----------------------|----------------------|


                                                                       
-----------------------|---------0----0-------|-----------------------|
--0--------2--2--2--2--|----2--------------0--|--0--------2--2--2--2--|
-----------------------|----------------------|-----------------------|
-----------------------|----------------------|-----------------------|


                                                                      
---------0----0-------|-----------------------|---------0----0-------|
----2--------------0--|--0--------2--2--2--2--|----2--------------0--|
----------------------|-----------------------|----------------------|
----------------------|-----------------------|----------------------|


                                                                       
-----------------------|---------0----0--2----|-----------------------|
--0--------2--2--0--2--|----2-----------------|--0--------0--0-----0--|
-----------------------|----------------------|-----------------3-----|
-----------------------|----------------------|-----------------------|


                                                                      
----------------------|-----------------------|---------0----0--2----|
----0-----------------|--2--------2--2--0--2--|----2-----------------|
---------2----0-------|-----------------------|----------------------|
-----------------3----|-----------------------|----------------------|


                                                                     
-----------------------|----------------------|---------------------|
--0--------0--0-----0--|----0-----------------|--2--------2----2----|
-----------------3-----|---------2----0-------|---------------------|
-----------------------|-----------------3----|---------------------|


                                                                    
---------0----0--0-----|---------------------|--2------------------|
----2---------------0--|--0----0------2------|---------2----2------|
-----------------------|---------------------|---------------------|
-----------------------|---------------------|---------------------|


                                                                           
--2----4--2--0------------|---------0----0--0-----|-----------4-2-0----0--|
----------------2----2----|----2---------------0--|--0--------------2-----|
--------------------------|-----------------------|-----------------------|
--------------------------|-----------------------|-----------------------|


                                                                         
--2--0------------------|--------------4----2----|--0-------------------|
------------2--2--2--2--|--2--2--2--2------------|-------4----2----0----|
------------------------|------------------------|----------------------|
------------------------|------------------------|----------------------|


                                                              
-------------------------|-----------14-14-12-11--12--11-9-7-|
-------------------------|--2---0-2--------------------------|
--3----3---0-3--3--0--0--|-----------------------------------|
-------------------------|-----------------------------------|


                                                        
----------12-11-9-7-5------0-|-------------------------|
-----------------------7-4---|--2------------------0---|
-----------------------------|-------------2--2--3---2-|
--8--------------------------|-------0-----------------|


                                                                   
-------------------------|------------11-12-14-12-11-12--12-11-12-|
-------------------------|--2---0-2-------------------------------|
--3----3---0-3--3--0--0--|----------------------------------------|
-------------------------|----------------------------------------|


                                                         
------------------------------|-------------------------|
------------------------------|---------------------0---|
------------------------------|------------2---2--3---2-|
--8-------8-8-7-8-7-8-7-5-2-3-|--0----0-----------------|


                                                      
-------------------------|--------2-----2--2--0-2-0--|
-------------------------|---------------------------|
--3----3---2-3--3--2--2--|--0---0-----0--------------|
-------------------------|---------------------------|


                                                        
-----------------------0---|---------------------------|
--2----------2--2--0-2---2-|--2----------2---------0---|
---------------------------|---------------------3---2-|
-------0---0---------------|-------0---0---0--0--------|


                                                              
-------------------------|-----------16-14-12-11--12--11-12--|
-------------------------|--2---0-2--------------------------|
--3----3---0-3--3--0--0--|-----------------------------------|
-------------------------|-----------------------------------|


                                                        
-----------0-----------------|-------------------------|
-------------4-2-0-----------|--2------------------0---|
-------------------3-2-0-----|-------------2--2--3---2-|
--8----8-----------------2-3-|-------0-----------------|


                                                       
--------------------------|--------2-----2--2--0-2-0--|
--------------------------|---------------------------|
--3----3---2-3--3--2-3-2--|--0---0-----0--------------|
--------------------------|---------------------------|


                                                        
-----------------------0---|---------------------------|
--2----------2--2--0-2---2-|--2----------2---------0---|
---------------------------|---------------------3---2-|
-------0---0---------------|-------0---0---0--0--------|


                                                                              
-------------------------|--------------------------|------------------------|
-------------------------|--2--2--2--2--2--2--2--2--|--2--2--2--2--2--0------|
--3----3---0-3--3--0--0--|--------------------------|------------------------|
-------------------------|--------------------------|------------------------|


                                                                               
--------------------------|------------------------|--------------------------|
--2--2--2--2--2--2--2--2--|--2--2--2--2--2--0------|--2--2--2--2--2--2--2--2--|
--------------------------|------------------------|--------------------------|
--------------------------|------------------------|--------------------------|


                                                                             
------------------------|--------------------------|------------------------|
--2--2--2--2--2--0------|--2--2--2--2--2--2--2--2--|--2--2--2--2--2--0------|
------------------------|--------------------------|------------------------|
------------------------|--------------------------|------------------------|


                                                                               
--------------------------|------------------------|--------------------------|
--2--2--2--2--2--2--2--2--|--2--2--2--2--2--0------|--2--2--2--2--2--2--2--2--|
--------------------------|------------------------|--------------------------|
--------------------------|------------------------|--------------------------|


                                                                             
------------------------|--------------------------|------------------------|
--2--2--2--2--2--0------|--2--2--2--2--2--2--2--2--|--2--2--2--2--2--0------|
------------------------|--------------------------|------------------------|
------------------------|--------------------------|------------------------|


                                                                               
--------------------------|------------------------|--------------------------|
--2--2--2--2--2--2--2--2--|--2--2--2--2--2--0------|--2--2--2--2--2--2--2--2--|
--------------------------|------------------------|--------------------------|
--------------------------|------------------------|--------------------------|


                                                                             
------------------------|--------------------------|------------------------|
--2--2--2--2--2--0------|--2--2--2--2--2--2--2--2--|--2--2--2--2--2--0------|
------------------------|--------------------------|------------------------|
------------------------|--------------------------|------------------------|


                                                                               
--------------------------|------------------------|--------------------------|
--2--2--2--2--2--2--2--2--|--2--2--2--2--2--0------|--2--2--2--2--2--2--2--2--|
--------------------------|------------------------|--------------------------|
--------------------------|------------------------|--------------------------|


                                                                  
------------------------|-------------------|--0-----------------|
--2--2--2--2--2--0------|--2----------------|----------0---------|
------------------------|-------------------|--------------------|
------------------------|-------------------|--------------------|


                                                                  
-------------------|--0-----------------|---------------------0--|
--2----------------|----------0---------|--2--2--2--2----2-------|
-------------------|--------------------|------------------------|
-------------------|--------------------|------------------------|


                                                                     
----0----------------|---------------------0--|----0----------------|
---------0--0--------|--2--2--2--2----2-------|---------0--0--------|
---------------------|------------------------|---------------------|
---------------------|------------------------|---------------------|


                                                                        
---------------------0--|----0----------------|---------------------0--|
--2--2--2--2----2-------|---------0--0--------|--2--2--2--2----2-------|
------------------------|---------------------|------------------------|
------------------------|---------------------|------------------------|


                                                                     
----0----------------|---------------------0--|----0----------------|
---------0--0--------|--2--2--2--2----2-------|---------0--0--------|
---------------------|------------------------|---------------------|
---------------------|------------------------|---------------------|


                                                                        
---------------------0--|----0----------------|---------------------0--|
--2--2--2--2----2-------|---------0--0--------|--2--2--2--2----2-------|
------------------------|---------------------|------------------------|
------------------------|---------------------|------------------------|


                                                                     
----0----------------|---------------------0--|----0----------------|
---------0--0--------|--2--2--2--2----2-------|---------0--0--------|
---------------------|------------------------|---------------------|
---------------------|------------------------|---------------------|


                                                                        
---------------------0--|----0--2-------------|------------------------|
--2--2--0--2----2-------|------------0--------|--0--0-----0----0-------|
------------------------|---------------------|--------3------------2--|
------------------------|---------------------|------------------------|


                                                                     
---------------------|---------------------0--|----0--2-------------|
------------2--------|--2--2--0--2----2-------|------------0--------|
----0----------------|------------------------|---------------------|
-------3-------------|------------------------|---------------------|


                                                                      
------------------------|---------------------|-------------------0--|
--0--0-----0----0-------|------------2--------|--2----2------2-------|
--------3------------2--|----0----------------|----------------------|
------------------------|-------3-------------|----------------------|


                                                                        
----0--0---------------|-----------2---------|-----------2----4--2--0--|
----------0--0----0----|----2-------------2--|----2--------------------|
-----------------------|---------------------|-------------------------|
-----------------------|---------------------|-------------------------|


                                                                       
-------------------0--|----0--0--------------|--4-2-0----0--2--0------|
--2----2------2-------|----------0--0--------|--------2---------------|
----------------------|----------------------|------------------------|
----------------------|----------------------|------------------------|


                                                                             
--------------------------|--------------------------|----------------------|
--2--2--2--2--2--2--2--2--|--2--2--2--2--2--2--2--2--|----------------------|
--------------------------|--------------------------|--0-------------------|
--------------------------|--------------------------|---------3----2----0--|


                                                                      
------------------------|----------------------|---------------------|
----0----0--2--0--------|----------------------|---------------------|
------------------------|--0-------------------|----2--3----0--------|
------------------2--3--|---------3----2----0--|---------------------|


                                                                    
----------------------|---------------------|----------------------|
----------------------|---------------------|----------------------|
--0-------------------|----2--3----0--------|--0-------------------|
---------3----2----0--|---------------------|---------3----2----3--|


                                                                          
----------------------|-----------------------|---------------------|
----------------------|-----------------2-----|---------------------|
--0-------------------|--0-----------------4--|----0-------0--------|
---------3----2----3--|---------3----2--------|-------4-------------|





Comments


Popular Iron Maiden tabs & chords
Afraid To Shoot Strangers 2 Bass Tabs
Fear Of The Dark 2 Bass Tabs
Gangland 2 Bass Tabs
Longest Day Intro Bass Tabs
Bring Your Daughter To The Slaughter 4 Tabs
Burning Ambition Tabs
From Here To Eternity 2 Tabs
Longest Day Tabs
Total Eclipse 1 Tabs
Where Eagles Dare Tabs


Song lyrics



↑ Back to top | Tablatures and chords are parodies/interpretations of the original songs. You may use it for private study, scholarship, research or language learning purposes only
© 2014 AZChords.com Contact us | Privacy policy | DMCA | Add/correct tabs | Request tabs | Top 50 tabs