>
 >
Charlotte The Harlot 2

Charlotte The Harlot 2 Bass Tabs

Iron Maiden - Charlotte The Harlot 2 chords, tabs, tablatures, lyrics

Guitar lessons | Add/correct | Request | Top 50 tabs Artists:  A B C D E F G H I J K L M N O P Q R S T U V W X Y Z 0-9

Charlotte The Harlot 2 Bass Tabs – Iron Maiden

CD, Sheet music, Poster

Do you like Charlotte The Harlot 2? Share with your friends now
Bass TabsBass Tabs v2Bass Tabs v3TabsTabs v2
Intro
-14-12-11----------------12-14--14-12-11-------------14-12-11---------------|
----------14-12----12-14-----------------14-12-14-------------14-12-14------|
----------------12--------------------------------12-------------------12---|
----------------------------------------------------------------------------|

----------------------------------------------------------------------------|
-7-5-4-----------5-7--7-5-4----------7-5-4----------------------------------|
-------7-5---5-7------------7---3----------7---3----------------------------|
-----------5------------------5---5----------5---5--------------------------|

-------------------------------7p9--------7p9-------------------------------|
-7-5-4-5-7-5-4-5-7-5-4-7-5-4--------5---------5-----------------------------|
-----------------------------7--------5-7-------5---------------------------|
----------------------------------------------------------------------------|


Verse
-|--------------------------------------------------------7-----------------|
-|------55------------55---------------55-----------5-7-9---9-7-5-----------|
-|77577-----5-5-77577-----55-x3--77577-----5-5-7757-------------------------|
-|---------5-5-----------5----------------5-5-------------------------------|

Chorus
-|--------------------------------|-----------------------------------------|
-|------5-5-7---------------------|-----55-----5h7----575-----55---975-575--|
-|77577-------5--55355-------7-x2-|-77-7--055-7---77-7---777-7--05----7-----|
-|---------------------7-5-3------|-----------------------------------------|

Verse
-|--------------------------------------------------------7-----------------|
-|------55------------55---------------55-----------5-7-9---9-7-5-----------|
-|77577-----5-5-77577-----55-x3--77577-----5-5-7757-------------------------|
-|---------5-5-----------5----------------5-5-------------------------------|

Chorus
-|--------------------------------|-----------------------------------------|
-|------5-5-7---------------------|-----55-----5h7----575-----55---975-575--|
-|77577-------5--55355-------7-x2-|-77-7--055-7---77-7---777-7--05----7-----|
-|---------------------7-5-3------|-----------------------------------------|


--------------------------------------9--14-12-11-12-11-9-----12-11-9-------|
-----------9-7-5-4-------------------9--------------------10----------10-9--|
-777777777---------7-5-3-3---33-22-7----------------------------------------|
----------------------------3-----------------------------------------------|

------------------------------9--11-12-14-12-11-12-12-11-12-----------------|
-----------------------------9------------------------------10--------------|
--------7-777-5-3-3--33-22p7------------------------------------------------|
-3-2-0-0-----5------3-------------------------------------------------------|

----------------------------------------------------------------------------|
---10-12-10-9---------------------------------------7--7-575----------------|
-10-----------10-9--------7-7777---5-3-3--33-22-0--7---------7-7------------|
-------------------3-2-0-0-------5-------3-----------------------00000------|

-12-11-9-----------------------------9-14-12-11-12-11-12--------------------|
---------12-------------------------9--------------------10-10--------------|
------------7-7-777--5-3-3--33-22p7-----------------------------------------|
--------------------5------3------------------------------------------------|

-12-10-9--------------------------------------------------------------------|
---------10-9--------------------------------------77-5757-575--------------|
--------------10-9----9-7-7---777--5-3-3--33-22-0-7------------7-7--7-7-5-5-|
-------------------10-------7-----5------3----------------------------------|

----------------------------------------------------------------------------|
----------------------------------------------------------5--------5--------|
-7-7-777--5-3-3--33-22-77777777777775-x8-(guitar-solo)-7---5-7p1p7--5-------|
---------5------3--------------------------------------0-----0--------------|

Verse
-|--------------------------------------------------------7-----------------|
-|------55------------55---------------55-----------5-7-9---9-7-5-----------|
-|77577-----5-5-77577-----55-x3--77577-----5-5-7757-------------------------|
-|---------5-5-----------5----------------5-5-------------------------------|

Chorus
-|--------------------------------|-----------------------------------------|
-|------5-5-7---------------------|-----55-----5h7----575-----55---975-575--|
-|77577-------5--55355-------7-x2-|-77-7--055-7---77-7---777-7--05----7-----|
-|---------------------7-5-3------|-----------------------------------------|


------------------14-12-11----------------12-14--14-12-11-------------------|
---------------------------14-12----12-14-----------------14--12-14---------|
-7777777777777777----------------12---------------------------------12------|
----------------------------------------------------------------------------|

--14-12-11---------------14-12-11-12-14-12-11-12-14-12-11-------------------|
-----------14--12-14--------------------------------------12-11-------------|
---------------------12-----------------------------------------12-11-------|
----------------------------------------------------------------------12p5--|

This is a difficul song, you should yous three fingers when you play maiden songs, like 
Harris do. //KRilLeHN (The guy who play bass in DEMOMIA)





Comments


Popular Iron Maiden tabs & chords
Ghost Of The Navigator 2 Bass Tabs
Invasion Bass Tabs
Paschendale Bass Tabs
Phantom Of The Opera Live Bass Tabs
Revelations 2 Bass Tabs
2 Minutes To Midnight 1 Tabs
Another Life 1 Tabs
El Dorado 2 Tabs
Hooks In You 1 Tabs
Where Eagles Dare Tabs


Song lyrics



↑ Back to top | Tablatures and chords are parodies/interpretations of the original songs. You may use it for private study, scholarship, research or language learning purposes only
© 2014 AZChords.com Contact us | Privacy policy | DMCA | Add/correct tabs | Request tabs | Top 50 tabs