>
 >
Can I Play With Madnesss

Can I Play With Madnesss Bass Tabs

Iron Maiden - Can I Play With Madnesss chords, tabs, tablatures, lyrics

Guitar lessons | Add/correct | Request | Top 50 tabs Artists:  A B C D E F G H I J K L M N O P Q R S T U V W X Y Z 0-9

Can I Play With Madnesss Bass Tabs – Iron Maiden

CD, Sheet music, Poster

Do you like Can I Play With Madnesss? Share with your friends now
Bass Tabs
-------------------------------------------------------------------------------
			     CAN I PLAY WITH MADNESS - Iron Maiden
-------------------------------------------------------------------------------


Q=145

Intro (Same as verse's)

     Q    E  S S E  S S E  E     Q    E  S S E  S S E  E   
G||---------------------------|---------------------------|
D||---------------------------|---------------------------|
A||--5----5--5-5-5--5-5-5--5--|--3----3--3-3-3--3-3-3--3--|
E||---------------------------|---------------------------|


  Q    E  S S E  S S E  E     E  E  S E  S E  S E  S  E   
---------------------------|-----------------------------|
---------------------------|-----5--5-5--5-5--5-5--------|
---------------------------|-----------------------0h-5--|
--3----3--3-3-3--3-3-3--3--|--3--------------------------|


  Q    S S S S E  S S E  E     Q    S S S S E  S S E  E   
----------------------------|----------------------------|
----------------------------|----------------------------|
--5----5-5-5-5-5--5-5-5--5--|--3----3-3-3-3-3--3-3-3--3--|
----------------------------|----------------------------|


                                                          Pre-Chorus
  Q    S S S S E  S S E  E     E  E  S E  S E  S E  S E     Q.     Q.     Q     
----------------------------|----------------------------|---------------------|
----------------------------|-----5--5-5--5-5--5-5--5-7--|--0-------------0----|
----------------------------|----------------------------|---------0-----------|
--3----3-3-3-3-3--3-3-3--3--|--3-------------------------|---------------------|


                       Chorus
  E  Q.     Q    Q       E  S S E  S S E  S S E  E     E  E  E  E  E  E  E  E   
----------------------|-----------------------------|--------------------------|
--L---------0---------|-----------------------------|--------------------------|
-----0-----------0----|--2--2-2-2--2-2-2--2-2-0-----|-----------------------5--|
----------------------|--------------------------3--|--L--3--3--3--3--3--3-----|


  E  E  E  E  E  E  E  E     Q    E  E  Q    E  E     Q    E  E  E  E  E  E   
--------------------------|------------------------|-------------------------|
--------------------------|------------------------|-------------------------|
--L--5--5--5--5--5--5-----|-------2--2--4----0--2--|--L----2--2--2--2--0-----|
-----------------------5--|--L---------------------|----------------------3--|


  E  E  E  E  E  E  E  E     E  E  E  E  E  E  E  E   
--------------------------|-----------4-----4--------|
-----------------------2--|--L--2--2-----2-----2--2--|
--------------------0-----|--------------------------|
--L--3--3--3--3--3--------|--------------------------|


  E  E  E  E  E  E  E  E     E  E  E  E  E  E  E  E   
-----------0--2-----------|--------------------------|
-----2--4-----------------|-----------------0--------|
--2--------------2-----2--|--L--2--2--2--2-----------|
--------------------0-----|--------------------2--3--|


  E  E  E  E  E  E  E  E     E  E  E  E  E  E  E  E   
--------------------------|--------------------------|
--------------------------|--------------------------|
--------------------7--5--|--L--5--5--5--5--5--------|
--L--3--3--3--3--3--------|--------------------5--5--|


  E  E  E  E  E  E  E  E     E  E  E  S S E  E  E  E   
--------------------------|---------------------------|
--------7--------5--2-----|---------------0-----------|
-----7-----7--5--------2--|--L--2--2--2-2----3--2-----|
--L-----------------------|------------------------3--|


  E  E  E  E  E  E  E  E     Q.     Q.     Q       E  Q.     Q    Q     
--------------------------|---------------------|----------------------|
--------------------------|--0-------------0----|--L---------0---------|
--------------------------|---------0-----------|-----0-----------0----|
--L--3--3--3--3--3--3--3--|---------------------|----------------------|


Q=190
Interlude (Play this at solo)
  Q    E   E  E  E  E   E     E  E  E  E  E  E  E  E   
--------------9--7---------|-----5--------7-----9-----|
-------7h--9--------9S--5--|--L-----5--5-----7-----7--|
--7------------------------|--------------------------|
---------------------------|--------------------------|


  Q    E   E  E  E  E   E     E  E  E  E  Q    Q     
--------------9--7---------|-----7------------------|
-------7h--9--------9S--5--|--L--------7--7---------|
--7------------------------|-------------------7----|
---------------------------|------------------------|


  Q    E   E  E  E  E   E     E  E  E  E  E  E  E  E   
--------------9--7---------|-----7--------9-----9-----|
-------7h--9--------9S--5--|--L-----5--7-----7-----7--|
--7------------------------|--------------------------|
---------------------------|--------------------------|


  Q    E   E  E  E  E   E     E  E  E  E  Q    Q     
--------------9--7---------|-----7------------------|
-------7h--9--------9S--5--|--L--------7--7---------|
--7------------------------|-------------------7----|
---------------------------|------------------------|


   Q     E    E   E   E   E   E     E   E  E   E   Q     Q     
-----------------12--11----------|-----10---------------12----|
--------10h--12----------10S--8--|--L---------10--10----------|
--10-----------------------------|----------------------------|
---------------------------------|----------------------------|


   Q     E    E   E   E   E   E     E   E  E   E   E   E   E   E   
-----------------12--11----------|-----10---------12--------------|
--------10h--12----------10S--8--|--L------8--10------10------10--|
--10-----------------------------|------------------------10------|
---------------------------------|--------------------------------|


   Q     E    E   E   E   E   E     E   E  E  E   Q     Q     
-----------------12--11----------|-----10--------------12----|
--------10h--12----------10S--8--|--L---------x--10----------|
--10-----------------------------|---------------------------|
---------------------------------|---------------------------|


   Q     E    E   E   E   E   E     E   E  E   E   Q     Q      
-----------------12--11----------|----------------17-----------|
--------10h--12----------10S--8--|-----15----------------------|
--10-----------------------------|------------15--------15S----|
---------------------------------|-----------------------------|

Stop start bit
  Q    Q    H           W                   Q    Q    H         
---------------------|-------------------|---------------------|
--5----5-------------|-------------------|--5------------------|
---------------------|-------------------|---------------------|
---------------------|-------------------|-------3-------------|


  W                   Q    Q    W                  
-------------------|-----------------------------||
-------------------|--5----5---------------------||
-------------------|-----------------------------||
-------------------|-----------------------------||




Duration Legend
---------------
W - whole
H - half
Q - quarter
E - 8th
S - 16th
T - 32nd
X - 64th
. - note dotted
|-n-|  - n-tuplets


Tablature Legend
----------------
L - tied note
x - dead note
g - grace note
(n) - ghost note
> - accentuded note
NH - natural harmonic
AH - artificial harmonic
TH - tapped harmonic
SH - semi harmonic
PH - pitch harmonic
h - hammer on
p - pull off
b - bend
br - bendRelease
pb - preBend
pbr - preBendRelease
brb - bendReleaseBend
\n/ - tremolo bar dip
\n - tremolo bar dive
-/n - tremolo bar Release up
/n\ - tremolo bar inverted dip
/n - tremolo bar return
-\n - tremolo bar Release down
S - shift slide
s - legato slide
/ -  slide into from below or out of upwards
\ -  slide into from above or out of downwards
~ - vibrato
W - wide vibrato
tr - trill
TP - tremolo picking
T - tapping
S - slap
P - pop
< - fade in
^ - brush up
v - brush down





Comments


Popular Iron Maiden tabs & chords
Fear Of The Dark Bass Tabs
Holy Smoke Bass Tabs
Aces High Drum Tabs
2 Minutes To Midnight 6 Tabs
I've Got The Fire Tabs
Out Of The Shadows Intro Tabs
Prowler 1 Tabs
Stranger In A Stranger Land Tabs
Transylvania Tabs
Can I Play With Madness Ukulele


Song lyrics



↑ Back to top | Tablatures and chords are parodies/interpretations of the original songs. You may use it for private study, scholarship, research or language learning purposes only
© 2014 AZChords.com Contact us | Privacy policy | DMCA | Add/correct tabs | Request tabs | Top 50 tabs