» » »

Iron Maiden, Can I Play With Madnesss Tabs (ver.1)

Artists:  A B C D E F G H I J K L M N O P Q R S T U V W X Y Z # 

Can I Play With Madnesss Tabs (ver.1)

Iron Maiden Tabs
 Rating:
4/5 (4 votes)
Can I Play With Madnesss lessons Tabs too difficult? Try these video lessons and learn fast
1
                Foamyan*ldouche

|--------------------------------------------------------------------|
|---------------------------5--55-------5-4-5-4-5--------------------|
|---5--555-555-55---3--33--------------------------------------------|
|-----------------------------------3--------------------------------|

VERSE
						Play 3 times then
|--------------------------------------------------------------------|
|------------------------------------------------5-4-5-4-5-----------|
|---5--555-555-55--3--333-333-33-------------------------------------|
|---------------------------------3--333-333-33----------------------|

|--------------------------------------------------------------------|
|--------------------------------------------------------------------|
|---5--555-555-55--3--333-333-33------------------5----5----5--------|
|---------------------------------3--333-333-33------5----5---5------|

CHORUS

|-------------------------------------------------------7-6----------|
|------------------(G)--------------------------------------9-7------|
|---2--222-222-22-------------------5--555-555-55---------------9----|
|-------------------3--333-333-33-------------------5----------------|

|----------------------------------------------------------0-2-4-2---|
|---------------------------------------------------2--2-4-----------|
|---2--222-222-22----------------------------------------------------|
|-------------------3--333-333-33---0--000-000-00--------------------|

|-------------------------------------------------------7-6----------|
|-----------------------------------------------------------9-7------|
|---2--222-222-22-------------------5--555-555-55---------------9----|
|-------------------3--333-333-33-------------------5----------------|

|--------------------------------------------------------------------|
|--------------------------------------------------------------------|
|---2--222-222-22---------------------5-----5-----5------------------|
|-------------------3--333-333-33---------5----5-----5---------------|

RIFF 1
	Play 2 times each
|--------------------------------------------------------------------|
|--------------------5-----------------------------------------------|
|---7--7-7-7-5---------5----7--7-7-7-5-------------------------------|
|--------------7---3-------------------7---3-3--5-5------------------|

|--------------------3-----------------------------------------------|
|--5--5-5-5-4----------3----5--5-5-5-4-------------------------------|
|--------------5---1-------------------5---1-1--3-3------------------|
|--------------------------------------------------------------------|
SOLO RIFF
						   Play 2 times then
|--------------------------------------------------------------------|
|--------------------------------------------------------------------|
|---7--7-7-7-5-----------------------7-7-7-7-5-----------------------|
|--------------7--3-333-3333-3333--------------7---3-3--5-5----------|

RIFF 2

|--------------------------------------------------------------------|
|--------------------------------------------------------------------|
|-------------------------------------5-----5-----5------------------|
|---3-3------3-3---6-------3-3-----------5-----5-----5---------------|
            
Submit corrections

comments powered by Disqus
↑ Back to top | Iron Maiden Tabs for Can I Play With Madnesss. Lyrics for acoustic guitar and electric guitar. 1 Tablatures and chords are parodies/interpretations of the original songs. You may use it for private study, scholarship, research or language learning purposes only