>
 >
Can I Play With Madness 2

Can I Play With Madness 2 Bass Tabs

Iron Maiden - Can I Play With Madness 2 chords, tabs, tablatures, lyrics

Guitar lessons | Add/correct | Request | Top 50 tabs Artists:  A B C D E F G H I J K L M N O P Q R S T U V W X Y Z 0-9

Can I Play With Madness 2 Bass Tabs – Iron Maiden

CD, Sheet music, Poster

Do you like Can I Play With Madness 2? Share with your friends now
Bass TabsBass Tabs v2Bass Tabs v3ChordsChords v2Drum TabsTabsTabs v2Tabs v3Tabs v4Ukulele
IRON MAIDEN
Can I play eith madness                        




                                                                           
G||------|------|----------------------------|----------------------------|
D||------|------|----------------------------|----------------------------|
A||------|------|--5----5-5-5-5-5--5-5-5--5--|--3----3-3-3-3-3--3-3-3--3--|
E||------|------|----------------------------|----------------------------|


                                                           
----------------------------|-----------------------------|
----------------------------|-----5--5-5--5-5--5-5--------|
----------------------------|-----------------------x-5p0-|
--3----3-3-3-3-3--3-3-3--3--|--3--------------------------|


                                                          
----------------------------|----------------------------|
----------------------------|----------------------------|
--5----5-5-5-5-5--5-5-5--5--|--3----3-3-3-3-3--3-3-3--3--|
----------------------------|----------------------------|


                                                          
----------------------------|----------------------------|
----------------------------|-----5--5-5--5-5--5-5--5-7--|
----------------------------|----------------------------|
--3----3-3-3-3-3--3-3-3--3--|--3-------------------------|


                                                          
----------------------------|----------------------------|
----------------------------|----------------------------|
--5----5-5-5-5-5--5-5-5--5--|--3----3-3-3-3-3--3-3-3--3--|
----------------------------|----------------------------|


                                                          
----------------------------|----------------------------|
----------------------------|-----5--5-5--5-5--5-5--5-7--|
----------------------------|----------------------------|
--3----3-3-3-3-3--3-3-3--3--|--3-------------------------|


                                                          
----------------------------|----------------------------|
----------------------------|----------------------------|
--5----5-5-5-5-5--5-5-5--5--|--3----3-3-3-3-3--3-3-3--3--|
----------------------------|----------------------------|


                                                          
----------------------------|----------------------------|
----------------------------|-----5--5-5--5-5--5-5--5-7--|
----------------------------|----------------------------|
--3----3-3-3-3-3--3-3-3--3--|--3-------------------------|


                                                          
----------------------------|----------------------------|
----------------------------|----------------------------|
--5----5-5-5-5-5--5-5-5--5--|--3----3-3-3-3-3--3-3-3--3--|
----------------------------|----------------------------|


                                                          
----------------------------|----------------------------|
----------------------------|-----5--5-5--5-5--5-5--5-7--|
----------------------------|----------------------------|
--3----3-3-3-3-3--3-3-3--3--|--3-------------------------|


                                                          
----------------------------|----------------------------|
----------------------------|----------------------------|
--5----5-5-5-5-5--5-5-5--5--|--3----3-3-3-3-3--3-3-3--3--|
----------------------------|----------------------------|


                                                                         
----------------------------|---------------------|---------------------|
----------------------------|--0-------------0----|-----------0---------|
----------------------------|---------0-----------|----0-----------0----|
--3----3-3-3-3-3--3-3-3--3--|---------------------|---------------------|


                                                        
-----------------------------|-------------------------|
-----------------------------|-------------------------|
--2--2-2-2--2-2-2--2-2-0-----|----------------------5--|
--------------------------3--|----3--3--3--3--3--3-----|


                                                                           
-------------------------|-----------------------|------------------------|
-------------------------|-----------------------|------------------------|
----5--5--5--5--5--5-----|------2--2--4----0--2--|------2--2--2--2--0-----|
----------------------5--|-----------------------|---------------------3--|


                                                                               
-------------------------|----------4-----4--------|-----------0--2-----------|
----------------------2--|----2--2-----2-----2--2--|-----2--4-----------------|
-------------------0-----|-------------------------|--2--------------2-----2--|
----3--3--3--3--3--------|-------------------------|--------------------0-----|


                                                                              
-------------------------|-------------------------|-------------------------|
----------------0--------|-------------------------|-------------------------|
----2--2--2--2-----------|-------------------7--5--|----5--5--5--5--5--------|
-------------------2--3--|----3--3--3--3--3--------|-------------------5--5--|


                                                                               
-------------------------|--------------------------|-------------------------|
-------7--------5--------|--------------0-----------|-------------------------|
----7-----7--5-----7--2--|----2--2--2-2----3--2-----|-------------------------|
-------------------------|-----------------------3--|----3--3--3--3--3--3--3--|


                                                                         
---------------------|---------------------|----------------------------|
--0-------------0----|-----------0---------|----------------------------|
---------0-----------|----0-----------0----|--5----5-5-5-5-5--5-5-5--5--|
---------------------|---------------------|----------------------------|


                                                          
----------------------------|----------------------------|
----------------------------|----------------------------|
--3----3-3-3-3-3--3-3-3--3--|----------------------------|
----------------------------|--3----3-3-3-3-3--3-3-3--3--|


                                                           
-----------------------------|----------------------------|
-----5--5-5--5-5--5-5--------|----------------------------|
-----------------------x-5p0-|--5----5-5-5-5-5--5-5-5--5--|
--3--------------------------|----------------------------|


                                                          
----------------------------|----------------------------|
----------------------------|----------------------------|
--3----3-3-3-3-3--3-3-3--3--|----------------------------|
----------------------------|--3----3-3-3-3-3--3-3-3--3--|


                                                          
----------------------------|----------------------------|
-----5--5-5--5-5--5-5--5-7--|----------------------------|
----------------------------|--5----5-5-5-5-5--5-5-5--5--|
--3-------------------------|----------------------------|


                                                          
----------------------------|----------------------------|
----------------------------|----------------------------|
--3----3-3-3-3-3--3-3-3--3--|----------------------------|
----------------------------|--3----3-3-3-3-3--3-3-3--3--|


                                                          
----------------------------|----------------------------|
-----5--5-5--5-5--5-5--5-7--|----------------------------|
----------------------------|--5----5-5-5-5-5--5-5-5--5--|
--3-------------------------|----------------------------|


                                                          
----------------------------|----------------------------|
----------------------------|----------------------------|
--3----3-3-3-3-3--3-3-3--3--|----------------------------|
----------------------------|--3----3-3-3-3-3--3-3-3--3--|


                                                          
----------------------------|----------------------------|
-----5--5-5--5-5--5-5--5-7--|----------------------------|
----------------------------|--5----5-5-5-5-5--5-5-5--5--|
--3-------------------------|----------------------------|


                                                          
----------------------------|----------------------------|
----------------------------|----------------------------|
--3----3-3-3-3-3--3-3-3--3--|----------------------------|
----------------------------|--3----3-3-3-3-3--3-3-3--3--|


                                                          
----------------------------|----------------------------|
-----5--5-5--5-5--5-5--5-7--|----------------------------|
----------------------------|--5----5-5-5-5-5--5-5-5--5--|
--3-------------------------|----------------------------|


                                                                                
----------------------------|----------------------------|---------------------|
----------------------------|----------------------------|--0-------------0----|
--3----3-3-3-3-3--3-3-3--3--|----------------------------|---------0-----------|
----------------------------|--3----3-3-3-3-3--3-3-3--3--|---------------------|


                                                                              
---------------------|-----------------------------|-------------------------|
-----------0---------|-----------------------------|-------------------------|
----0-----------0----|--2--2-2-2--2-2-2--2-2-0-----|----------------------5--|
---------------------|--------------------------3--|----3--3--3--3--3--3-----|


                                                                           
-------------------------|-----------------------|------------------------|
-------------------------|-----------------------|------------------------|
----5--5--5--5--5--5-----|------2--2--4----0--2--|------2--2--2--2--0-----|
----------------------5--|-----------------------|---------------------3--|


                                                                               
-------------------------|----------4-----4--------|-----------0--2-----------|
----------------------2--|----2--2-----2-----2--2--|-----2--4-----------------|
-------------------0-----|-------------------------|--2--------------2-----2--|
----3--3--3--3--3--------|-------------------------|--------------------0-----|


                                                                              
-------------------------|-------------------------|-------------------------|
----------------0--------|-------------------------|-------------------------|
----2--2--2--2-----------|-------------------7--5--|----5--5--5--5--5--------|
-------------------2--3--|----3--3--3--3--3--------|-------------------5--5--|


                                                                               
-------------------------|--------------------------|-------------------------|
-------7--------5--------|--------------0-----------|-------------------------|
----7-----7--5-----7--2--|----2--2--2-2----3--2-----|-------------------------|
-------------------------|-----------------------3--|----3--3--3--3--3--3--3--|


                                                                      
---------------------|---------------------|-------------9--7--------|
--0-------------0----|-----------0---------|-------7h-9--------9/-5--|
---------0-----------|----0-----------0----|--7----------------------|
---------------------|---------------------|-------------------------|


                                                                           
----5--------7-----9-----|-------------9--7--------|----7-----------------|
-------5--5-----7-----7--|-------7h-9--------9/-5--|---------7--7---------|
-------------------------|--7----------------------|-----------------7----|
-------------------------|-------------------------|----------------------|


                                                                              
-------------9--7--------|----7--------9-----9-----|-------------9--7--------|
-------7h-9--------9/-5--|-------5--7-----7-----7--|-------7h-9--------9/-5--|
--7----------------------|-------------------------|--7----------------------|
-------------------------|-------------------------|-------------------------|


                                                       
----7-----------------|----------------12--11---------|
---------7--7---------|--------10h-12----------10/-8--|
-----------------7----|--10---------------------------|
----------------------|-------------------------------|


                                                          
----10-------------12----|----------------12--11---------|
----------x--10----------|--------10h-12----------10/-8--|
-------------------------|--10---------------------------|
-------------------------|-------------------------------|


                                                                
----10---------12--------------|----------------12--11---------|
--------8--10------10------10--|--------10h-12----------10/-8--|
-----------------------10------|--10---------------------------|
-------------------------------|-------------------------------|


                                                          
----10-------------12----|----------------12--11---------|
----------x--10----------|--------10h-12----------10/-8--|
-------------------------|--10---------------------------|
-------------------------|-------------------------------|


                                                                               
--------------17----------|-------------9--7--------|----5--------7-----9-----|
----15--------------------|-------7h-9--------9/-5--|-------5--5-----7-----7--|
----------15--------15/---|--7----------------------|-------------------------|
--------------------------|-------------------------|-------------------------|


                                                                              
-------------9--7--------|----7--------9-----------|-------------9--7--------|
-------7h-9--------9/-5--|-------7--7-----7-----7--|-------7h-9--------9/-5--|
--7----------------------|-------------------7-----|--7----------------------|
-------------------------|-------------------------|-------------------------|


                                                                            
----5--------9-----------|-------------9--7--------|----7------------------|
-------5--7-----7--------|-------7h-9--------9/-5--|-------5--7--7---------|
-------------------7--7--|--7----------------------|------------------7----|
-------------------------|-------------------------|-----------------------|


                                                                                
--------------------|------------------|--------------------|------------------|
--5----5------------|------------------|--5----5------------|------------------|
--------------------|------------------|--------------------|------------------|
--------------------|------------------|-------3------------|------------------|


                                                                                
----------------------------|---------------------|---------------------|------|
--5----5--------------------|--0-------------0----|-----------0---------|------|
----------------------------|---------0-----------|----0-----------0----|------|
----------------------------|---------------------|---------------------|------|


                                                                            
-------------------------|-------------------------|-----------------------|
-------------------------|-------------------------|-----------------------|
----------------------5--|----5--5--5--5--5--5-----|------2--2--4----0--2--|
----3--3--3--3--3--3-----|----------------------5--|-----------------------|


                                                                             
------------------------|-------------------------|----------4-----4--------|
------------------------|----------------------2--|----2--2-----2-----2--2--|
------2--2--2--2--0-----|-------------------0-----|-------------------------|
---------------------3--|----3--3--3--3--3--------|-------------------------|


                                                                               
-----------0--2-----------|-------------------------|-------------------------|
-----2--4-----------------|----------------0--------|-------------------------|
--2--------------2-----2--|----2--2--2--2-----------|-------------------7--5--|
--------------------0-----|-------------------2--3--|----3--3--3--3--3--------|


                                                                               
-------------------------|-------------------------|--------------------------|
-------------------------|-------7--------5--------|--------------0-----------|
----5--5--5--5--5--------|----7-----7--5-----7--2--|----2--2--2-2----3--2-----|
-------------------5--5--|-------------------------|-----------------------3--|


                                                                             
-------------------------|---------------------|---------------------|------|
-------------------------|--0-------------0----|-----------0---------|------|
-------------------------|---------0-----------|----0-----------0----|------|
----3--3--3--3--3--3--3--|---------------------|---------------------|------|


        





Comments


Popular Iron Maiden tabs & chords
Lightning Strikes Twice Bass Tabs
Aces High 4 Tabs
Childhood's End 1 Tabs
Ghost Of The Navigator Tabs
Iron Maiden 1 Tabs
Journeyman Live 2 Tabs
Judas Be My Guide Tabs
Killers 2 Tabs
Prodigal Son Tabs
Weekend Warrior 1 Tabs


Song lyrics



↑ Back to top | Tablatures and chords are parodies/interpretations of the original songs. You may use it for private study, scholarship, research or language learning purposes only
© 2014 AZChords.com Contact us | Privacy policy | DMCA | Add/correct tabs | Request tabs | Top 50 tabs