» » »

Brighter Than A Thousand Suns Tabs (ver.2)

Artists:  A B C D E F G H I J K L M N O P Q R S T U V W X Y Z # 

Brighter Than A Thousand Suns Tabs (ver.2)

Iron Maiden
Rating:
0/5 (0 votes)

Hard to play? Try these video lessons and learn fast.
                -------------------------------------------------------------------------------
            Brighter Than a Thousand Suns - Iron Maiden                          
-------------------------------------------------------------------------------

Tuning:Standard




Riff1  Gtr1 (clean)                                                          4x
e|----------------------------------------------------------------------------|
B|----------------------------------------------------------------------------|
G|----------------------------------------------------------------------------|
D|-4--------5~-------7~-------9---------9---------7~-------5~-------4---------|
A|----5--------7--------9--------10--------10--------9--------7--------5------|
E|-------0--------0--------0---------0---------0--------0--------0--------0---|
          Gtr2 (comes at the third repeat of riff1)                             2x
e|----------------------------------------------------------------------------|
B|----------------------------------------------------------------------------|
G|-11-------12~------14~------16--------16--------14~------12~------11--------|
D|----12-------14-------16-------17--------17--------16-------14-------12-----|
A|----------------------------------------------------------------------------|
E|-------0--------0--------0---------0---------0---------0--------0-------0---|

   
   
   Riff2  Gtr1 (distorted)                                                      2x
e|----------------------------------------------------------------------------|
B|----------------------------------------------------------------------------|
G|----------------------------------------------------------------------------|
D|-4--------5~-------7~-------9---------9---------7~-------5~-------4---------|
A|----5--------7--------9--------10--------10--------9--------7--------5------|
E|-------0--------0--------0---------0---------0--------0--------0--------0---|
          Gtr2 (distorted)                                                      2x
e|----------------------------------------------------------------------------|
B|----------------------------------------------------------------------------|
G|-11-------12~------14~------16--------16--------14~------12~------11--------|
D|----12-------14-------16-------17--------17--------16-------14-------12-----|
A|----------------------------------------------------------------------------|
E|-------0--------0--------0---------0---------0---------0--------0-------0---|

   

Riff3                                 2x
e|-------------------------------------|
B|-------------------------------------|
G|-------------------------------------|
D|--2-2---2---2---2---------4-5--------|
A|--2-2-x-2---2-x-2---4-5---2-3--------|
E|--0-0-x-0---0-x-0---2-3-0------------|
        *       *     * * * * *
e|-------------------------------------|
B|-------------------------------------|
G|-----------------7-------------------|
D|--2-2---2---2----7---------4-5-------|
A|--2-2-x-2---2-x--5~--4-5-0-2-3-------|
E|--0-0-x-0---0-x------2-3-------------|
        *       *      * * * * *

   Verse 1:Riff2 2x
           Riff3 1x
           Riff2 2x 
           Riff3 1x

Riff4                                 2x
e|-------------------------------------|
B|-------------------------------------|
G|--5--------2-------------------------|
D|--5--------2--------5--------3-------|
A|--3--------0--------5--------3-------|
E|--------------------3--------1-------|

   play riff3 1x
   
   verse 2:Riff2 2x
           riff3 1x
           Riff4 2x
   
Riff5 Gtr1 (clean)                                                    6x
e|------------------------0-----------------0-----------------0--------|
B|--------0-------------0---0-------------0---0-------------0---0------|
G|------0---0---------5-------5---------2-------2---------0-------0----|
D|----2-------2-----5-----------5-----2-----------2-----3-----------3--|
A|---------------3-----------------0-----------------------------------|
E|-0-------------------------------------------------1-----------------|
   

Riff6                                   2x
e|---------------------------------------|
B|---------------------------------------|
G|--9---------5---------2----------------|
D|--9---------5---------2---------3------|
A|--7---------3---------0---------3------|
E|--0-----------------------------1------|


Solo 1 Rhythm                                                 4x
e|-------------------------------------------------------------|
B|-------------------------------------------------------------|
G|-------------------------------------------------------------|
D|--9-------------------------------2-2----5-5---5----12-12----|
A|--7----7-9-10-9-7--3~--0-2-3-2-0--0-0--0-2-2-0-3--0-10--9----|
E|-----7-------------------------------------------------------|

   

Riff7                                                       2x
e|-----------------------------------------------------------|
B|-----------------------------------------------------------|
G|-----9------9------9------9------5------5------5------5----|
D|-----9------9------9------9------5------5------5------5----|
A|-----7------7------7------7--3-3-3--3-3-3--3-3-3--3-3-3----|
E|-0-0----0-0----0-0----0-0----------------------------------|

e|-----------------------------------------------------------|
B|-----------------------------------------------------------|
G|-----2------2------2------2--------------------------------|
D|-----2------2------2------2------3------3------3------3----|
A|-0-0-0--0-0-0--0-0-0--0-0-0------3------3------3------3----|
E|-----------------------------1-1-1--1-1-1--1-1-1--1-1-1----|

Riff8 Guitar1                                                                 x2
e|-------------------------------------------------------------|
B|-------------------------------------------------------------|
G|-------------------------------------------------------------|
D|-----2-------------------------2--------4--------------------|
A|-----2-------------------------3--------5--------------------|
E|-----0-------------------------------------------------------|

Riff 8 guitar 2                                                           
e|-------------------------------------------------------------|
B|-------------------------------------------------------------|
G|---------------------------------------0---------0-----------|
D|-----2----5---4----2---------------2---------4---------------|
A|-----2------------------5---2---3---------5------------------|
E|-----0-------------------------------------------------------|

e|-------------------------------------------------------------|
B|-------------------------------------------------------------|
G|---------------------------------------0---------0-----------|
D|---2------5---4----2---------------2---------4---------------|
A|-------2----------------5---2---3---------5------------------|
E|-------------------------------------------------------------|

Riff8 Guitar 3                                                           
e|-------------------------------------------------------------|
B|-------------------------------------------------------------|
G|---------4--2--0--------------------0---------0--------------|
D|-----2--------------4------------2---------4-----------------|
A|-----2-------------------2----3--------5---------------------|
E|-----0-------------------------------------------------------|

e|-------------------------------------------------------------|
B|-------------------------------------------------------------|
G|---------4---2---0--------------------0----------0-----------|
D|--2------------------4------------2----------4---------------|
A|------2-------------------2---3----------5-------------------|
E|-------------------------------------------------------------|

play Riff7 X2
play Riff8 X2



Riff9                                                      X2
e|---------------------------------------------------------|
B|---------------------------------------------------------|
G|-----14------------10-------12---------------------------|
D|-----14------------10-------12---------------------------|
A|-----12------------8--------10---------------------------|
E|---------------------------------------------------------|


Riff10                                                 
e|---------------------------------------------------------|
B|---------------------------------------------------------|
G|-----14------------12-------------10---------------------|
D|-----14------------12-------------10---------------------|
A|-----12------------10-------------8----------------------|
E|---------------------------------------------------------|

Solo2 Rhythm                                                     X4
e|---------------------------------------------------------|
B|---------------------------------------------------------|
G|---------------------------------------------------------|
D|--4------4------4------4------4------4------4------4-----|
A|--2--2-2-2--2-2-2--2-2-2--2-2-2--2-2-2--2-2-2--2-2-2-----|
E|---------------------------------------------------------|
       * *    * *    * *    * *    * *    * *    * *
e|--------------------------------|
B|--------------------------------|
G|--------------------------------|
D|-----------------------3--------|
A|--333-------222--------3--------|
E|-------555-------333---1--------|

Play Riff2 X2
play Riff3 X2

verse3
play Riff2 X2
play Riff3 X1
play Riff2 X2
play Riff3 X1
Play Riff4 X2
play Riff5 X4 (clean)
play Solo rhythm1 X4

Outro
play Riff1 X2(clean)

and finish with this

e|--------------------------|
B|--------------------------|
G|--------------------------|
D|--2-----------------------|
A|--2----let ring-----------|
E|--0-----------------------|
            
Hard to play? Try these video lessons and learn fast. | Correct




comments powered by Disqus
↑ Back to top | Tablatures and chords are parodies/interpretations of the original songs. You may use it for private study, scholarship, research or language learning purposes only