» » »

Brighter Than A Thousand Suns Bass tabs (ver.1)

Artists:  A B C D E F G H I J K L M N O P Q R S T U V W X Y Z # 

Brighter Than A Thousand Suns Bass tabs (ver.1)

Iron Maiden
Rating:
0/5 (0 votes)

Hard to play? Try these video lessons and learn fast.
                ------------------------------------------------------------
IRON MAIDEN
BRIGHTER THAN A THOUSAND SUNS
BASS TAB
--------------------------------------------------------------


INTRO

(Bass enters at :

0:30)

G-------------------|
D-------------------|
A--7-7-7-7-7-7-7-7--|
E-------------------|


MAIN RIFF :

G-------------------------------------|
D-------------------------------------|
A-------------------------------0--2--|
E--0--0----0--0--0-----0--2--3--------|


-----------------------------------------|
-----------------------------------------|
---------------------5-------------0--2--|
--0--0----0--0--0---------0--2--3--------|

VERSE :

G--------------------------|
D--------------------------|
A--------------------------|
E--0--0----0--0--0-----0---|

REP. MAIN RIFF

REP. VERSE

REP. MAIN RIFF


BRIDGE :

G----------5-----------------------|
D------3-5---5--3-----------7------|
A--3--------------------5-7---7-5--|
E-------------------5--------------|


-----------------------------------|
---------5-------------------------|
-----3-5---5-3---------------------|
--3--------------1-1-1-1-1-1-1-1---|


REP. MAIN RIFF

REP. VERSE

REP. MAIN RIFF

REP. BRIDGE


CHORUS SLOW :

G----------9-----------------------|
D------7-9---9--7-----------5------|
A--7----------------3---3-5---5-3--|
E----------------------------------|


----------------------------------|
---------7------------------------|
-----5-7---7-5--------------------| X 4
--5-------------1-1-1-1-1-1-1-1---|

CHORUS FAST :

|--9----------------5----------------|
|--9----------------5----------------|
|--7-7-7-7-7-7-7-7--3-3-3-3-3-3-3-3--|
|------------------------------------|


--2-----------------------------------|
--2------------------3----------------|
--0-0-0-0-0-0-0-0-0--3----------------| X 2
---------------------1-1-1-1-1-1-1-1--|


RIFF 1 :

G-----------------------|
D-----------------------|
A-----7--9-10--9--7--3--|
E--0--------------------|


---------------------------------------------------------------|
------------------------------------------------------5-5-4-4--|
--0--2--3--2------0--0--0--0--2--2--2--2--3--3--3--3-----------| X 4
--------------3------------------------------------------------|


VERSE 2 :

|--------9----------9------------9----------9----|
|--------9----------9------------9----------9----|
|--7--7--7----7--7--7------7--7--7----7--7--7----|
|------------------------------------------------|

--------5----------5------------5----------5--------------------------|
--------5----------5------------5----------5------------7----------7--|
--3--3--3----3--3--3------3--3--3----3--3--3------------7----------7--|
--------------------------------------------------5--5--5----5--5--5--|


--------------------------------------------------------------------|
--------7--------7----------3----------3------------3----------3----|
--------7--------7----------3----------3------------3----------3----| (X 2 without words 
2 with)
--5--5--5--5--5--5----1--1--1----1--1--1------1--1--1----1--1--1----|


REP. RIFF 1

REP. VERSE 2

then :

RIFF 2 :

G--------------------------------------|
D--------------------------------------|
A-----7--9--10--9--7--3--0--2--3--2----| x 4
E--0-----------------------------------|


RIFF 3 :

|-------------------------------------|
|--7-7-7-7-7-7-7-7--3-3-3-3-3-3-3-5---|
|-------------------------------------|
|-------------------------------------|


GUITAR SOLO 2 :

G--4------4------4------4--------4------4------4------4------|
D--4------4------4------4--------4------4------4------4------|
A--2--2-2-2--2-2-2--2-2-2--2-2---2--2-2-2--2-2-2--2-2-2--3-3-|
E------------------------------------------------------------|

--5------2------4------------------|
--5------2------4------5--------3--|
--3--0-0-0--2-2-2------5--------3--| X 4
-------------------3-3-3--1-1---1--|


REP. INTRO

REP. MAIN RIFF

REP. VERSE 1

REP. MAIN RIFF

REP. VERSE 1

REP. MAIN RIFF

REP. BRIDGE

REP. CHORUS SLOW

REP. RIFF 1


LAST NOTE

G-----
D-----
A-----
E--0--.


end.
            
Hard to play? Try these video lessons and learn fast. | Correct




comments powered by Disqus
↑ Back to top | Tablatures and chords are parodies/interpretations of the original songs. You may use it for private study, scholarship, research or language learning purposes only