» » »

Brave New World Bass tabs (ver.1)

Artists:  A B C D E F G H I J K L M N O P Q R S T U V W X Y Z # 

Brave New World Bass tabs (ver.1)

Iron Maiden
Rating:
0/5 (0 votes)

Tabs too difficult? Try these video lessons and learn fast.
                Brave New World by Iron Maiden (easier version without chords)
Standard Tuning.  "x6" means the note is played 6 times, etc.

G:----------|----------|----------|----------|
D:-7--10----|----------|--7-10-5--|-3--5--7--|  x6
A:-------10-|-8-10--10-|----------|----------|
E:----------|----------|----------|----------|

(Distorted verse 1, "Wilderness, house of pain...," figure out rhythm)

G:----------|----------|----------|----------|
D:----------|----------|----------|----------|  
A:5---------|1---------|3---------|5---------|
E:----------|----------|----------|----------|

G:----------|----------|----------|----------|
D:----------|----------|----------|----------|  
A:5---------|1---------|3---------|5---------|
E:----------|----------|----------|----------|

G:----------|----------|----------|----------|
D:----------|----------|----------|----------|  
A:1---------|3---------|1---------|5---------|
E:----------|----------|----------|----------|

G:----------|----------|----------|----------|
D:----------|----------|----------|----------|  
A:1---------|3---------|1---------|5---------|
E:----------|----------|----------|----------|

(Chorus, play 4 triplets of each, 12 times total)
G:----------|----------|----------|----------|
D:----------|----------|----------|----------|
A:5---------|1---------|3---------|5---------|
E:----------|----------|----------|----------|

G:----------|----------|----------|----------|
D:----------|----------|----------|----------|
A:5---------|1---------|----------|5---------|
E:----------|----------|3---------|----------|

G:----------|----------|----------|----------|
D:----------|----------|----------|----------|
A:5---------|1---------|3---------|5---------|
E:----------|----------|----------|----------|

G:----------|----------|----------|----------|
D:----------|----------|----------|----------|
A:5---------|1---------|----------|5---------|
E:----------|----------|3---------|----------|

(Distorted verse 2, "Dragon kings, dying queens...")
***NOTE***Rhythm change, play only three times (as indicated)
G:----------|----------|----------|----------|
D:----------|----------|----------|----------|  
A:-5---5---5|-1---1---1|-3---3---3|-5---5---5|
E:----------|----------|----------|----------|

G:----------|----------|----------|----------|
D:----------|----------|----------|----------|  
A:-5---5---5|-1---1---1|-3---3---3|-5---5---5|
E:----------|----------|----------|----------|

G:----------|----------|----------|----------|
D:----------|----------|----------|----------|  
A:-1---1---1|-3---3---3|-1---1---1|-5---5---5|
E:----------|----------|----------|----------|

G:----------|----------|----------|----------|
D:----------|----------|----------|----------|  
A:-1---1---1|-3---3---3|-1---1---1|-5---5---5|
E:----------|----------|----------|----------|

(Chorus, play 4 triplets of each, 12 times total)
G:----------|----------|----------|----------|
D:----------|----------|----------|----------|
A:5---------|1---------|3---------|5---------|
E:----------|----------|----------|----------|

G:----------|----------|----------|----------|
D:----------|----------|----------|----------|
A:5---------|1---------|----------|5---------|
E:----------|----------|3---------|----------|

G:----------|----------|----------|----------|
D:----------|----------|----------|----------|
A:5---------|1---------|3---------|5---------|
E:----------|----------|----------|----------|

G:----------|----------|----------|----------|
D:----------|----------|----------|----------|
A:5---------|1---------|----------|5---------|
E:----------|----------|3---------|----------|

(During Solo 1, Janick Gers)
G:----------|----------|----------|----------|
D:----------|----------|----------|----------|  
A:-5---5---5|-1---1---1|-3---3---3|-5---5---5|
E:----------|----------|----------|----------|

G:----------|----------|----------|----------|
D:----------|----------|----------|----------|  
A:-5---5---5|-1---1---1|-3---3---3|-5---5---5|
E:----------|----------|----------|----------|

G:----------|----------|----------|----------|
D:----------|----------|----------|----------|  
A:-1---1---1|-3---3---3|-1---1---1|-5---5---5|
E:----------|----------|----------|----------|

G:----------|----------|----------|----------|
D:----------|----------|----------|----------|  
A:-1---1---1|-3---3---3|-1---1---1|-5---5---5|
E:----------|----------|----------|----------|

(During Solo 2, Dave Murray)
G:----------|----------|----------|----------|
D:----------|----------|----------|----------|  
A:7--7--7---|3--3--3---|5--5--5---|-7---7---7|
E:----------|----------|----------|----------|

G:----------|----------|----------|----------|
D:----------|----------|----------|----------|  
A:7--7--7---|3--3--3---|5--5--5---|-7---7---7|
E:----------|----------|----------|----------|

(After Solo)
G:----------|----------|----------|----------|
D:----------|----------|----------|----------|  x4
A:7--7--7---|3--3--3---|5--5--5---|-7---7---7|
E:----------|----------|----------|----------|

(Chorus, play 4 triplets of each, 12 times total)
G:----------|----------|----------|----------|
D:----------|----------|----------|----------|
A:5---------|1---------|3---------|5---------|
E:----------|----------|----------|----------|

G:----------|----------|----------|----------|
D:----------|----------|----------|----------|
A:5---------|1---------|----------|5---------|
E:----------|----------|3---------|----------|

G:----------|----------|----------|----------|
D:----------|----------|----------|----------|
A:5---------|1---------|3---------|5---------|
E:----------|----------|----------|----------|

G:----------|----------|----------|----------|
D:----------|----------|----------|----------|
A:5---------|1---------|----------|5---------|
E:----------|----------|3---------|----------|

(Outro)
G:----------|----------|----------|----------|
D:-7--10----|----------|--7-10-5--|-3--2--0--| 
A:-------10-|-8-10--10-|----------|-------5--|
E:----------|----------|----------|----------|

Notes:
•	Song is in D minor
•	Written by Murray/Dickinson/Harris
•	Featured on the 2000 album Brave New World
•	Sounds better without a pick
•	4:4 time signature
•	STEVE HARRIS IS GOD!!!!!


Enjoy,
Zack
            
Tabs too difficult? Try these video lessons and learn fast.




comments powered by Disqus
↑ Back to top | Tablatures and chords are parodies/interpretations of the original songs. You may use it for private study, scholarship, research or language learning purposes only