» » »

Iron Maiden, Brave New World Bass tabs (ver.3)

Artists:  A B C D E F G H I J K L M N O P Q R S T U V W X Y Z # 

Brave New World Bass tabs (ver.3)

Iron Maiden Tabs
Rating:
0/5 (0 votes)
Brave New World lessons Tabs too difficult? Try these video lessons and learn fast
                
INTRO (2X):

G|-----5---------------------------5--------------------|
D|-7-------5-----3---5---5-----7-------5---3---5---7----|
A|-----3---------------------------3--------------------|
E|-5-------3-----1---3---3-----5-------3---1---3---5----|

CALM VERSE:

G|-----5---------------------------5--------------------|X3
D|-7-------5-----3---5---5-----7-------5---3---5---7----|
A|-----3---------------------------3--------------------|
E|-5-------3-----1---3---3-----5-------3---1---3---5----|


G|-----5---------------------------5---------------|
D|-7-------5-----3---5---5-----7-------5---3---5---|
A|-----3---------------------------3---------------|
E|-5-------3-----1---3---3-----5-------3---1---3---|

STRONG VERSE

G|-------------------------|X2
D|-------------------------|
A|--5(31X)\1(16X)/3(16X)/5-|
E|-------------------------|


G|---------------------------------------------------------------------|
D|---------------------------------------------------------------------|
A|-5(16X)-1(15X)/3(16X)\1(16X)/5-5(16X)-1(15X)/3(16X)\1(16X)-3-5(16X)--|
E|---------------------------------------------------------------------|

CHORUS(4X):

G|-7---------------3---------------5---------------7-----------------|
D|-7---------------3---------------5---------------7-----------------|
A|-5-555-555-555-551-111-111-111-113-333-333-333-335-555-555-555-55--|
E|-------------------------------------------------------------------|

VERSE 2:

G|-7---------------3---------------5---------------7----------------|X2
D|-7---------------3---------------5---------------7----------------|
A|-5-55-55-555-555-1-11-11-111-111-3-33-33-333-333-5-55-55-555-555--|
E|------------------------------------------------------------------|


G|-3---------------5---------------3---------------7----------------|X2
D|-3---------------5---------------3---------------7----------------|
A|-1-11-11-111-111-3-33-33-333-333-1-11-11-111-111-5-55-55-555-555--|
E|------------------------------------------------------------------|

PLAY: CHORUS

DURING THE FIRST SOLO:

G|-7---------------3---------------5---------------7---------------|X2
D|-7---------------3---------------5---------------7---------------|
A|-5-55-55-555-555-1-11-11-111-111-3-33-33-333-333-5-55-55-555-555-|
E|-----------------------------------------------------------------|


G|-3---------------5---------5-5---3---------------7---------------|X2
D|-3---------------5---------5-5---3---------------7---------------|
A|-1-11-11-111-111-3-33-33-333-3---1-11-11-111-111-5-55-55-555-555-|
E|-----------------------------------------------------------------|

DURING THE SECOND SOLO:

G|-9-----------7-7-5-----------7-7-7-----------7-7-9---------------|X2
D|-9-----------5-5-5-----------5-5-7-----------5-5-9---------------|
A|-7-77-77-777-----3-33-33-333-----5-55-55-555-----7-77-77-777-777-|
E|-----------------------------------------------------------------|

SOLO RIFF:

G|-9-----------7-7-5-----------7-7-7-----------7-7-9---------------|
D|-9-----------5-5-5-----------5-5-7-----------5-5-9---------------|
A|-7-77-77-777-----3-33-33-333-----5-55-55-555-----7-77-77-777-777-|
E|-----------------------------------------------------------------|
                                                    |
                                                    |
G|-9-----------7-7-5-----------7-7-7-----------7-7-9---------------|
D|-9-----------5-5-5-----------5-5-7-----------5-5-9---------------|
A|-7-77-77-777-----3-33-33-333-----5-55-55-555-----7-7(14X)--------|
E|-----------------------------------------------------------------|
                                                    |
                                                    |
G|-9-----------7-7-5-----------7-7-7-----------7-7-9---------------|
D|-9-----------5-5-5-----------5-5-7-----------5-5-9---------------|
A|-7-77-77-777-----3-33-33-333-----5-55-55-555-----7-77-77-777-777-|
E|-----------------------------------------------------------------|
                                                    |
                                                    |
G|-9-----------7-7-5-----------7-7-7-----------7-7-9---------------------|
D|-9-----------5-5-5-----------5-5-7-----------5-5-9------7-9-7--7-------|
A|-7-77-77-777-----3-33-33-333-----5-55-55-555-----7-7(6X)-----10-10-8-7-|
E|-----------------------------------------------------------------------|

PLAY: CHORUS(3X)

CHORUS VARIATION:

G|-7---------------3---------------5---------------7~~-|
D|-7---------------3---------------5---------------7~~-|
A|-5-555-555-555-551-111-111-111-113-333-333-333-335~~-|
E|-----------------------------------------------------|

FINAL:

G|-----5-------------------------5--------------------|
D|-7-------5----3---5---5----7-------5---3---5---7~~--|
A|-----3-------------------------3--------------------|
E|-5-------3----1---3---3----5-------3---1---3---5~~--|


LEG:

~ : Let Ring
/ : Slide Up
\ : Slide Down
            

comments powered by Disqus
↑ Back to top | Iron Maiden Bass for Brave New World. Lyrics for acoustic guitar and electric guitar. Tablatures and chords are parodies/interpretations of the original songs. You may use it for private study, scholarship, research or language learning purposes only