>
 >
Back In The Village 2

Back In The Village 2 Guitar Tabs

Iron Maiden - Back In The Village 2 chords, tabs, tablatures, lyrics

Guitar lessons | Add/correct | Request | Top 50 tabs Artists:  A B C D E F G H I J K L M N O P Q R S T U V W X Y Z 0-9

Back In The Village 2 Guitar Tabs – Iron Maiden

CD, Sheet music, Poster

Do you like Back In The Village 2? Share with your friends now
Bass TabsTabsTabs v2Tabs v3
Intro/Main Riff

--------------------------------------------------------------
--------------------------------------------------------------
-----------------5p2---2-4p2---2-----------------5p2---2-2~---
-----5-----4---------5--------5------5-----4----------5-------
-0-0---0-0---0-0----------------0-0---0-0---0-0---------------
--------------------------------------------------------------

verse

--------------------------------------------------------------
--------------------------------------------------------------
-----------------5p2---2-4p2---2-----------------5p2---2-2~---
-----5-----4---------5--------5------5-----4----------5-------
-0-0---0-0---0-0----------------0-0---0-0---0-0---------------
--------------------------------------------------------------
--------------------------------
-6---8--------------------------
-5---7--------------------------
-3---5--------------------------play twice
--------------------------------
--------------------------------

White flags shot to ribbons....

-------------------------------------------
-------------------------------------------
-7---3---0---5------7---3---0--2--2---2---
-7---3---5---5---7--7---3---5--2--4---2----
-5---1---2---3---4--5---1---2--0--0---0----
--------------------------------------------

chorus

-5-5-4p0-----5-5-4p0-----5-5-4p0------------------------------
---------3p0----------3p0---------3p0-3p0-----3p0-------------
-------------------------------------------3p0-----3p0---------

------------------------------------------
-5-5-4p0-----5-5-4p0----------------------
---------3p0----------3p0-5-5------------
--------------------------5--5--5--repeat-
--------------------------3--3--5---------
--------------------------------3---------

--------------0h5h7-----------------------------0h5h7-------5~~---repeat
---0h2p0h5h7--------0h5p0-----------0h2p0h5h7--------0h5h7-------
-0-------------------------5p0-----0-------------------------------
-------------------------------5p0---------------------------------

interlude

-5--5-----5---5-----8p5------------------------5-----------------------
--8---8p6---8---8p6-----6-6-5p3-6p3-6-5p3-6p3--6-3-6-5p3-6p3-6-5p3--

-----5------------------------------
-6p3---6-3-8p6-8p5-----8p6-8p5-----
--------------------7-5---------7-6-
------------------------------------
------------------------------------
------------------------------------

ending 2

--------------------------------
-8p6-8p5-----------------------
---------7---------------------
-----------6-------------------
-----------5h7-----------------
--------------------------------

solo rhythm

--------------------------------
--------------------------------
---8-7------7---5---0dive-------
---8-7------7---5---0----------
-0------------------------------
--------------------------------

But still we walk in.....

--------------------------------------------------
--------------------------------------------------
--------------------------------------------------
-9---------------7----------------repeat--then-7--
-7---------------5-----------------------------7--
-0-0-000000000-0--000000000000--------------5--

Outro repeat chorus

ends with

--------------------------------
-3-------------------------------
-2-------------------------------
-0-------------------------------
--------------------------------
--------------------------------





Comments


Popular Iron Maiden tabs & chords
Brave New World 2 Bass Tabs
Brighter Than A Thousand Suns 2 Bass Tabs
Dance Of Death 4 Bass Tabs
Infinite Dreams Bass Tabs
Can I Play With Madness 1 Tabs
Look For The Truth Tabs
New Frontier Tabs
Nodding Donkey Blues Tabs
Stranger In A Stranger Land Tabs
Twighlight Zone 1 Tabs


Song lyrics



↑ Back to top | Tablatures and chords are parodies/interpretations of the original songs. You may use it for private study, scholarship, research or language learning purposes only
© 2014 AZChords.com Contact us | Privacy policy | DMCA | Add/correct tabs | Request tabs | Top 50 tabs