» » »

Back In The Village Bass tabs (ver.1)

Artists:  A B C D E F G H I J K L M N O P Q R S T U V W X Y Z # 

Back In The Village Bass tabs (ver.1)

Iron Maiden
Rating:
0/5 (0 votes)

Hard to play? Try these video lessons and learn fast.
                Back in the village by Iron Maiden
Standard Tuning 

(Intro)
|--------------------------------|
|--------------------------------|
|0-------0-0-----0-------0-0-----|
|--------------------------------|

|--------------------------------|--------------------------------|
|--------------------------------|--------------------------------|
|0-0-0-0-0-0-0-0-0-0-0-0-0-0-0-0-|0-0-0-0-0-0-0-0-3-4-5---5-4-3---|
|--------------------------------|--------------------------------|

|--------------------------------|--------------------------------|
|--------------------------------|----------------5-5-5-5-5-4-3---|
|0-0-0-0-0-0-0-0-0-0-0-0-0-0-0-0-|0-0-0-0-0-0-0-0-----------------|
|--------------------------------|--------------------------------|

 |---------Played Twice-----------|
||--------------------------------||------------5---------------7---|
||--------------------------------||------5---------------7---9-----|
||0-0-0-0-0-0-0-0-0-0-0-0-0-0-0-0-||3---------------5---------------|
||--------------------------------||--------------------------------|

|--------------------------------||--this part 2x------------------||
|--------------------------------||--------------------------------||
|0-0-0-0-0-0-0-0-3-4-5-5-5-4-3-3-||0-0-0-0-0-0-0-0-0-0-0-0-0-0-0-0-||
|--------------------------------||--------------------------------||

|------------5---------------7---|--------------------------------|
|------5---------------7---9-----|--------------------------------|
|3---------------5---------------|0-0-0-0-0-0-0-0-3-4-5-5-5-4-3-3-|
|--------------------------------|--------------------------------|

|--------------------------------|--------------------------------|
|----------------5-5-5-5-5-4-3-2-|------------------------3-------|
|5-5-5-5-5-5-5-5-----------------|1-1-1-1-1-1-1-1-1-1-1-1---1-1-1-|
|--------------------------------|--------------------------------|

|--------------------------------|------------5---------------7---|
|--------------------------------|------5---------------7---9-----|
|2-2-2-2-2-2-2-2-2-2-2-2-2-2-2-2-|3---------------5---------------|
|--------------------------------|--------------------------------|

|--------------------------------|--------------------------------|
|----------------5-5-5-5-5-4-3-2-|------------------------3-------|
|5-5-5-5-5-5-5-5-----------------|1-1-1-1-1-1-1-1-1-1-1-1---1-1-1-|
|--------------------------------|--------------------------------|

|--------------------------------|
|--------------------------------|
|2-2-2-2-2-2-2-2-2-2-2-2-2-2-2-2-|
|--------------------------------|

|--------------------------------|--------------------------------|
|----------------7---7-7---6-4-3-|----------------7---7-7---6-4-3-|
|3-----3-----3-------------------|3-----3-----3-------------------|
|--------------------------------|--------------------------------|

|--------------------------------|7-7-7-7-7-7-7-7-7-7-7-7-7-6-4-3-|
|----------------5-5-5-5-7-7-7-7-|--------------------------------|_
|5-5-5-5-5-5-5-5-----------------|--------------------------------| |
|--------------------------------|--------------------------------| |
                                                                    |_x2
|--------------------------------|--------------------------------| |
|----------------5-5-5-5-7-7-7-7-|--------------------------------|_|
|5-5-5-5-5-5-5-5-----------------|3-3-3-3-3-3-3-3-0-0-0-0-0-0-0-0-|
|--------------------------------|--------------------------------|

|--------------------------------|--------------------------------|
|--------------------------------|--------------------------------|
|0-0-0-0-0-0-0-0-0-0-0-0-0-0-0-0-|0-0-0-0-0-0-0-0-3-4-5---5-4-3---|
|--------------------------------|--------------------------------|

|--------------------------------|--------------------------------|
|--------------------------------|----------------5-5-5-5-5-4-3---|
|0-0-0-0-0-0-0-0-0-0-0-0-0-0-0-0-|0-0-0-0-0-0-0-0-----------------|
|--------------------------------|--------------------------------|
 
 |---------Played Twice-----------|
||--------------------------------||------------5---------------7---|
||--------------------------------||------5---------------7---9-----|
||0-0-0-0-0-0-0-0-0-0-0-0-0-0-0-0-||3---------------5---------------|
||--------------------------------||--------------------------------|

                                   |-----This part played twice----|
|--------------------------------||--------------------------------||
|--------------------------------||--------------------------------||
|0-0-0-0-0-0-0-0-3-4-5-5-5-4-3-3-||0-0-0-0-0-0-0-0-0-0-0-0-0-0-0-0-||
|--------------------------------||--------------------------------||

|------------5---------------7---|--------------------------------|
|------5---------------7---9-----|--------------------------------|
|3---------------5---------------|0-0-0-0-0-0-0-0-3-4-5-5-5-4-3-3-|
|--------------------------------|--------------------------------|

|--------------------------------|--------------------------------|
|----------------5-5-5-5-5-4-3-2-|------------------------3-------|
|5-5-5-5-5-5-5-5-----------------|1-1-1-1-1-1-1-1-1-1-1-1---1-1-1-|
|--------------------------------|--------------------------------|

|--------------------------------|------------5---------------7---|
|--------------------------------|------5---------------7---9-----|
|2-2-2-2-2-2-2-2-2-2-2-2-2-2-2-2-|3---------------5---------------|
|--------------------------------|--------------------------------|

|--------------------------------|--------------------------------|
|----------------5-5-5-5-5-4-3-2-|------------------------3-------|
|5-5-5-5-5-5-5-5-----------------|1-1-1-1-1-1-1-1-1-1-1-1---1-1-1-|
|--------------------------------|--------------------------------|

|--------------------------------|
|--------------------------------|
|2-2-2-2-2-2-2-2-2-2-2-2-2-2-2-2-|
|--------------------------------|

|--------------------------------|--------------------------------|
|----------------7---7-7---6-4-3-|----------------7---7-7---6-4-3-|
|3-----3-----3-------------------|3-----3-----3-------------------|
|--------------------------------|--------------------------------|

|--------------------------------|7-7-7-7-7-7-7-7-7-7-7-7-7-6-4-3-|
|----------------5-5-5-5-7-7-7-7-|--------------------------------|_
|5-5-5-5-5-5-5-5-----------------|--------------------------------| |
|--------------------------------|--------------------------------| |
                                                                    |_x2
|--------------------------------|--------------------------------| |
|----------------5-5-5-5-7-7-7-7-|--------------------------------|_|
|5-5-5-5-5-5-5-5-----------------|3-3-3-3-3-3-3-3-0-0-0-0-0-0-0-0-|
|--------------------------------|--------------------------------|

|--------------------------------|
|--------------------------------|
|0-0-----0-0-----0-------0-0-----|
|--------------------------------|

|--------------------------------|--------------------------------|
|----------------5-5-5-5-5-4-3-2-|------------------------3-------|
|5-5-5-5-5-5-5-5-----------------|1-1-1-1-1-1-1-1-1-1-1-1---1-1-1-|
|--------------------------------|--------------------------------|

|--------------------------------|------------5---------------7---|
|--------------------------------|------5---------------7---9-----|
|2-2-2-2-2-2-2-2-2-2-2-2-2-2-2-2-|3---------------5---------------|
|--------------------------------|--------------------------------|

|--------------------------------|--------------------------------|
|----------------5-5-5-5-5-4-3-2-|------------------------3-------|
|5-5-5-5-5-5-5-5-----------------|1-1-1-1-1-1-1-1-1-1-1-1---1-1-1-|
|--------------------------------|--------------------------------|

|--------------------------------|------------5---------------7---|
|--------------------------------|------5---------------7---9-----|
|2-2-2-2-2-2-2-2-2-2-2-2-2-2-2-2-|3----------------5--------------|
|--------------------------------|--------------------------------|

|--------------------------------|--------------------------------|
|--------------------------------|----------------5-5-5-5-5-4-3-2-|_
|0-0-0-0-0-0-0-0-5-5-5-5-5-4-3-2-|0-0-0-0-0-0-0-0-----------------| |
|--------------------------------|--------------------------------| |
                                                                    |_x2
|--------------------------------|--------------------------------| |
|--------------------------------|--------------------------------| |
|0-0-0-0-0-0-0-0-5-5-5-5-5-4-3-2-|0-0-0-0-0-0-0-0-5-5-5-5-5-4-3-2-|_|
|--------------------------------|--------------------------------|

|--------------------------------|--------------------------------|
|----------------5-5-5-5-5-4-3-2-|------------------------3-------|
|5-5-5-5-5-5-5-5-----------------|1-1-1-1-1-1-1-1-1-1-1-1---1-1-1-|
|--------------------------------|--------------------------------|

|--------------------------------|------------5---------------7---|
|--------------------------------|------5---------------7---9-----|
|2-2-2-2-2-2-2-2-2-2-2-2-2-2-2-2-|3---------------5---------------|
|--------------------------------|--------------------------------|

|--------------------------------|--------------------------------|
|----------------5-5-5-5-5-4-3-2-|------------------------3-------|
|5-5-5-5-5-5-5-5-----------------|1-1-1-1-1-1-1-1-1-1-1-1---1-1-1-|
|--------------------------------|--------------------------------|

|--------------------------------|------------5---------------7---|
|--------------------------------|------5---------------7---9-----|
|2-2-2-2-2-2-2-2-2-2-2-2-2-2-2-2-|3----------------5--------------|
|--------------------------------|--------------------------------|

|--------------------------------|--------------------------------|
|--------------------------------|----------------5-5-5-5-5-4-3-2-|_
|0-0-0-0-0-0-0-0-5-5-5-5-5-4-3-2-|0-0-0-0-0-0-0-0-----------------| |
|--------------------------------|--------------------------------| |
                                                                    |_x2
|--------------------------------|--------------------------------| |
|----------------3-3-3-3-3-2-1-0-|--------------------------------|_|
|0-0-0-0-0-0-0-0-----------------|0-0-0-0-0-0-0-0-5-5-5-5-5-4-3-2-|
|--------------------------------|--------------------------------|

|--------------------------------|--------------------------------|
|------------------------3-3-3-3-|------------------------3-3-3-3-|
|0-0-0-0-0-0-0-0-3-3-3-3---------|0-0-0-0-0-0-0-0-3-3-3-3---------|
|--------------------------------|--------------------------------|

|--------------------------------|--------------------------------|
|------------------------3-3-3-3-|5-5-5-5-------------------------|
|0-0-0-0-0-0-0-0-3-3-3-3---------|--------7-7-7-7-3-3-3-3-5-5-5-5-|
|--------------------------------|--------------------------------|

|--------------------------------|--------------------------------|
|--------------------------------|----------------5-5-5-5-5-4-3-2-|
|0-0-0-0-0-0-0-0-5-5-5-5-5-4-3-2-|0-0-0-0-0-0-0-0-----------------|
|--------------------------------|--------------------------------|

|--------------------------------|--------------------------------|
|----------------3-3-3-3-3-2-1-0-|--------------------------------|
|0-0-0-0-0-0-0-0-----------------|0-0-0-0-0-0-0-0-5-5-5-5-5-4-3-2-|
|--------------------------------|--------------------------------|

 |---------Played Twice-----------|
||--------------------------------||------------5---------------7---|
||--------------------------------||------5---------------7---9-----|
||0-0-0-0-0-0-0-0-0-0-0-0-0-0-0-0-||3---------------5---------------|
||--------------------------------||--------------------------------|

|--------------------------------|--------------------------------|
|----------------5-5-5-5-5-4-3-2-|------------------------3-------|
|5-5-5-5-5-5-5-5-----------------|1-1-1-1-1-1-1-1-1-1-1-1---1-1-1-|
|--------------------------------|--------------------------------|

|--------------------------------|------------5---------------7---|
|--------------------------------|------5---------------7---9-----|
|2-2-2-2-2-2-2-2-2-2-2-2-2-2-2-2-|3---------------5---------------|
|--------------------------------|--------------------------------|

|--------------------------------|--------------------------------|
|----------------5-5-5-5-5-4-3-2-|------------------------3-------|
|5-5-5-5-5-5-5-5-----------------|1-1-1-1-1-1-1-1-1-1-1-1---1-1-1-|
|--------------------------------|--------------------------------|

|--------------------------------|
|--------------------------------|
|2-2-2-2-2-2-2-2-2-2-2-2-2-2-2-2-|
|--------------------------------|

|--------------------------------|--------------------------------|
|----------------7---7-7---6-4-3-|----------------7---7-7---6-4-3-|
|3-----3-----3-------------------|3-----3-----3-------------------|
|--------------------------------|--------------------------------|
 
|--------------------------------|7-7-7-7-7-7-7-7-7-7-7-7-7-6-4-3-|
|----------------5-5-5-5-7-7-7-7-|--------------------------------|_
|5-5-5-5-5-5-5-5-----------------|--------------------------------| |
|--------------------------------|--------------------------------| |
                                                                    |_x2
|--------------------------------|--------------------------------| |
|----------------5-5-5-5-7-7-7-7-|--------------------------------|_|
|5-5-5-5-5-5-5-5-----------------|3-3-3-3-3-3-3-3-0-0-0-0-0-0-0-0-|
|--------------------------------|--------------------------------|

|------------------------5-6-7---|------------------------5-6-7---|
|----------------5-6-7-----------|----------------5-6-7-----------|_
|0-0-0-0-0-0-0-0-----------------|0-0-0-0-0-0-0-0-----------------| |
|--------------------------------|--------------------------------| |
                                                                    |_x2
|------------------------5-6-7---|5-5-5-5-5-4-3-2-----------------| |
|----------------5-6-7-----------|----------------5-5-5-5-5-4-3-2-|_|
|0-0-0-0-0-0-0-0-----------------|--------------------------------|
|--------------------------------|--------------------------------|

|--------------------------------|7-7-7-7-7-7-7-7-7-7-7-7-7-6-4-3-|
|----------------5-5-5-5-7-7-7-7-|--------------------------------|_
|5-5-5-5-5-5-5-5-----------------|--------------------------------| |
|--------------------------------|--------------------------------| |
                                                                    |_x2
|--------------------------------|--------------------------------| |
|----------------5-5-5-5-7-7-7-7-|--------------------------------|_|
|5-5-5-5-5-5-5-5-----------------|3-3-3-3-3-3-3-3-0-0-0-0-0-0-0-0-|
|--------------------------------|--------------------------------|

 (Outro)
|--------------------------------|--------------------------------|
|----------------------5-4-------|--------------------------------|
|5-------5-------5---------5-7-5-|--------------------------------|
|--------------------------------|--------------------------------|

Thanks, please rate it after you learn it.
_TheBassist01_
            
Hard to play? Try these video lessons and learn fast. | Correct




comments powered by Disqus
↑ Back to top | Tablatures and chords are parodies/interpretations of the original songs. You may use it for private study, scholarship, research or language learning purposes only