» » »

Iron Maiden, Assasin Bass tabs (ver.2)

Artists:  A B C D E F G H I J K L M N O P Q R S T U V W X Y Z # 

Assasin Bass tabs (ver.2)

Iron Maiden Tabs
 Rating:
4/5 (4 votes)
Assasin lessons Tabs too difficult? Try these video lessons and learn fast
1
                The Assassin
BASS TAB

|--------------------------------------------------------------------------|
|-2-------2------2----5-------5-------5-----3-------3-------3--------------|
|----0-0-----0-0----0----0-0-----0-0-----0-----0-0-----0-0----0-3-0-0-5-2--|
|--------------------------------------------------------------------------|
 Play four times
|-.-.-.-.---------.-.-.-.-----|--------9----------10----------7----------9-|
|-2-2-2-2-3-3-0-2-2-2-2-2-----|--7--9-------7--9--------7--9-------7--9----|
|-------------------------3-5-|--------------------------------------------|
|-----------------------------|--------------------------------------------|
Play four times                Play twice, then twice again in F instead of A

|-----------------------|----------------------------------------------------|
|--7h9h10-7-9----9------|----9-----9-----10-----7-----7-------7-----7--------|
|-------------10---10---|--7---7-7---7-7----7-7---7-7---7-5-5---5-5---5-5-90-|
|-----------------------|----------------------------------------------------|
                         Chorus- "better watch out.."

-----------------------------------------------------------------------------|
-----------9-----9-----10-----7-----7-------7-----7--------------------5-----|
0-10-9-7-7---7-7---7-7----7-7---7-7---7-5-5---5-5---5-5-9-0-0-10-9-3-3---3-3-|
-----------------------------------------------------------------------------|

-------------------------------------------------------|
-5-----6-----3-----3-------6-----6-----3-----5-----5---|
---3-3---3-3---3-3---3-3-3---3-3---3-3---3-3---3-3---3-|
-------------------------------------------------------|
                             The chorus is played twice

|-----------------------------|---------------------------|
|------7h9h10-7-9----9----7---|------7h9h10-7-9----9----8-|
|-7-7-------------10---10---8-|-7-7-------------10---10---|
|-----------------------------|---------------------------|
 "Assassin.."                  "Assassin.."

|----------------------------|--------------------------------------------|
|-----7h9h10-7-9----9----7---|-----7h9h10-7-9----7------------------------|
|-7-7------------10---10---8-|-7-7------------10---8-10p9p7-9----7--------|
|----------------------------|--------------------------------10---9-10-7-|
 "Assassin.."                 "Assassin...                  ...Hahahaha!!"

|-----------------------------------------------------------------|
|-----------------------------------------------------------------|
|-----------------------------------------------------------------|
|-8-8-8-8-8-8-8-8-8-8-8-8-9-9-7-8-8-8-8-8-8-8-8-8-8-8-8-8-4-4-6-6-|

-----------------------------------------------------------------|
-----------------------------------------------------------------|
-7-7-7-7-7-7-7-7-7-7-7-7-8-8-5-7-7-7-7-7-7-7-7-7-7-7-7-7-----5-5-|
---------------------------------------------------------8-8-----|

|-----------------------------------------------------|
|-----------------------------------------------------|
|-2-2-2-2-2-2-2-2-2-2-2-2-2-2-2-2-2-2-2-2-2-2-2-2-----|
|-------------------------------------------------2-2-|
 Guitar solo				        Play twice

|-----------------------------------------------5-4---5-4---|
|-3-3-3-3-3-3-3-3-3-3-3-3-5-5-3-3-3-3-3-3-3-3-3-----5-----5-|
|-----------------------------------------------------------|
|-----------------------------------------------------------|
							        Play twice

|-----------------------------------------------------|
|-----------------------------------------------------|
|-2-2-2-2-2-2-2-2-2-2-2-2-2-2-2-2-2-2-2-2-2-2-2-2-----|
|-------------------------------------------------2-2-|
                                            Play twice

|-----------------------------------------------5-4---5-4---|
|-3-3-3-3-3-3-3-3-3-3-3-3-5-5-3-3-3-3-3-3-3-3-3-----5-----5-|
|-----------------------------------------------------------|
|-----------------------------------------------------------|
					        Play twice end of solo

|--------9----------10----------7----------9---|
|--7--9-------7--9--------7--9-------7--9------|
|----------------------------------------------|
|----------------------------------------------|
 Play twice, then twice again in F instead of A

|-----------------------|----------------------------------------------------|
|--7h9h10-7-9----9------|----9-----9-----10-----7-----7-------7-----7--------|
|-------------10---10---|--7---7-7---7-7----7-7---7-7---7-5-5---5-5---5-5-90-|
|-----------------------|----------------------------------------------------|
                         Chorus- "better watch out.."

-----------------------------------------------------------------------------|
------------9-----9-----10-----7-----7-------7-----7-------------------------|
0-10-9-7-7---7-7---7-7----7-7---7-7---7-5-5---5-5---5-5-9-0-0-10-9-3-3---3-3-|
-----------------------------------------------------------------------------|

-------------------------------------------------------|-----------|
-5-----6-----3-----3-------6-----6-----3-----5-----5---|-----------|
---3-3---3-3---3-3---3-3-3---3-3---3-3---3-3---3-3---3-|-7-7-------|
-------------------------------------------------------|-----------|
                             The chorus is played twice "Assassin!"
            
Submit corrections

comments powered by Disqus
↑ Back to top | Iron Maiden Bass for Assasin. Lyrics for acoustic guitar and electric guitar. 1 Tablatures and chords are parodies/interpretations of the original songs. You may use it for private study, scholarship, research or language learning purposes only