» » »

Iron Maiden, Assasin Bass tabs (ver.1)

Artists:  A B C D E F G H I J K L M N O P Q R S T U V W X Y Z # 

Assasin Bass tabs (ver.1)

Iron Maiden Tabs
 Rating:
4/5 (4 votes)
Assasin lessons Tabs too difficult? Try these video lessons and learn fast
1
                -------------------------------------------------------------------------------
			    The Assassin - Iron Maiden
-------------------------------------------------------------------------------


Tuning: standard

Intro
G|---------------5----5----5---3----3----3--------|
D|-7-00-7-00-7-0---00---00---0---00---00---333-5-2|
A|------------------------------------------------|
E|------------------------------------------------| x4

G|--------------------------------|
D|-22-22-22-22-0-2--22-22-22-22---0|
A|----------------------------3---|
E|--------------------------------| x5

G|----------------------|    |-----5-55-55-55-55-|
D|-----2-222-222-22-222-|    |---5---------------|
A|---0------------------|    |-3-----------------|
E|-0--------------------| x5 |-------------------| x5

Pre-Chorus:
G|-4h5-4---4------|
D|-------5---5-5-7|
A|----------------|
E|----------------|

Chorus:
G|-----------------------------------------------------------------|
D|----9----9-----10--7-9----7----7----4---45-4----9---9----10-7-9--|
A|-77---77---77----------55---55---55---5------77--77---77---------| x2
E|-----------------------------------------------------------------|

G|-------------------------------|
D|----5----5----6--3-5--66-3-5---|
A|-33---33---55----------------6-|
E|-------------------------------|

play this whole thing above two times

assassin....assasssin...
G|-4h5---4---4---2---4h5---4---4----|
D|-----5---5---5---3-----5---5---5-7|
A|----------------------------------|
E|----------------------------------| x2
            
Submit corrections

comments powered by Disqus
↑ Back to top | Iron Maiden Bass for Assasin. Lyrics for acoustic guitar and electric guitar. 1 Tablatures and chords are parodies/interpretations of the original songs. You may use it for private study, scholarship, research or language learning purposes only