» » »

In This Moment, Prayers Bass tabs (ver.1)

Artists:  A B C D E F G H I J K L M N O P Q R S T U V W X Y Z # 

Prayers Bass tabs (ver.1)

In This Moment Tabs
Rating:
3/5 (2 votes)
Prayers lessons Tabs too difficult? Try these video lessons and learn fast
                In This Moment - Prayers
Beautiful Tragedy, 2007 

Listen to the song for the perfect timing!

Tuning: BEAD

Intro:
|---------------------------------------------|
|---------------------------------------------| 2x
|---------------------------------------------|
|-5-5--------3-3--------0-0--------1-1--------|

Verse 
Part 1; 2x
|-------------------------------------------------------------------|
|-------------------------------------------------------------------|
|-------------------------------------------------------------------|
|-5-5-5-5-5-5-5-5-5-5-5-5-5-5-5-5--3-3-3-3-3-3-3-3-3-3-3-3-3-3-3-3--|

|-------------------------------------------------------------------|
|-------------------------------------------------------------------|
|-------------------------------------------------------------------|
|-0-0-0-0-0-0-0-0-0-0-0-0-0-0-0-0--1-1-1-1-1-1-1-1-1-1-1-1-1-1-1-1--|

Part 2
|----------------------------------------|
|----------------------------------------| 2x
|----------------------------------------|
|-0-0--0-0---0-0--0-0-0--0-0--0-0--------|

|----------------------------------------------------------------------|
|----------------------------------------------------------------------| 
|----------------------------------------------------------------------|
|-0-0--0-0--0-0--0-0---0-0-0-0-0-0---0-0--0-0--0-0--0-0---0-0-0-0-0-0--|

|----------------------------------------------------------------------|
|----------------------------------------------------------------------| 
|----------------------------------------------------------------------|
|-0-0--0-0--0-0--0-0---0-0-0-0-0-0---0-0--0-0--0-0--0-0---0-0-0-1-1-1--|

Chorus (2x):
|-------------------------------------------------------------------|
|-------------------------------------------------------------------|
|-------------------------------------------------------------------|
|-5-5-5-5-5-5-5-5-5-5-5-5-5-5-5-5--3-3-3-3-3-3-3-3-3-3-3-3-3-3-3-3--|

|-------------------------------------------------------------------|
|-------------------------------------------------------------------|
|-------------------------------------------------------------------|
|-0-0-0-0-0-0-0-0-0-0-0-0-0-0-0-0--1-1-1-1-1-1-1-1-1-1-1-1-1-1-1-1--|

Verse 2:
|----------------------------------------|
|----------------------------------------| 2x
|----------------------------------------|
|-0-0--0-0---0-0--0-0-0--0-0--0-0--------|

|----------------------------------------------------------------------|
|----------------------------------------------------------------------|
|----------------------------------------------------------------------|
|-0-0--0-0--0-0--0-0---0-0-0-0-0-0---0-0--0-0--0-0--0-0---0-0-0-0-0-0--|
|----------------------------------------------------------------------|
|----------------------------------------------------------------------| 
|----------------------------------------------------------------------|
|-0-0--0-0--0-0--0-0---0-0-0-0-0-0---0-0--0-0--0-0--0-0---0-0-0-1-1-1--|

Chorus 2:
|-------------------------------------------------------------------|
|-------------------------------------------------------------------|
|-------------------------------------------------------------------|
|-5-5-5-5-5-5-5-5-5-5-5-5-5-5-5-5--3-3-3-3-3-3-3-3-3-3-3-3-3-3-3-3--|

|-------------------------------------------------------------------|
|-------------------------------------------------------------------|
|-------------------------------------------------------------------|
|-0-0-0-0-0-0-0-0-0-0-0-0-0-0-0-0--1-1-1-1-1-1-1-1-1-1-1-1-3-3-3-3--|

|-------------------------------------------------------------------|
|-------------------------------------------------------------------|
|-------------------------------------------------------------------|
|-5-5-5-5-5-5-5-5-5-5-5-5-5-5-5-5--3-3-3-3-3-3-3-3-3-3-3-3-3-3-3-3--|

|-------------------------------------------------------------------|
|-------------------------------------------------------------------|
|-------------------------------------------------------------------|
|-0-0-0-0-0-0-0-0-0-0-0-0-0-0-0-0--1-1-1-1-1-1-1-1-1-1-1-1-1-1-1-1--|

Chorus part 2:
|--------------------------------------------------------------------|
|--------------------------------------------------------------------| 2x
|--------------------------------------------------------------------|
|-5-5-5-5-5-5-5-5--3-3-3-3-3-3-3-3--0-0-0-0-0-0-0-0--1-1-1-1-1-1-1-1-|

Bridge:
|--------------------------------------------------------------------|
|--------------------------------------------------------------------|
|--------------------------------------------------------------------|
|--------------------0-0--1-1----5-5---5-5-5--5-5-5--5-5----0-0-1-1---|
                              |you may add some notes here|

Chorus 3 (2x):
|-------------------------------------------------------------------|
|-------------------------------------------------------------------|
|-------------------------------------------------------------------|
|-5-5-5-5-5-5-5-5-5-5-5-5-5-5-5-5--3-3-3-3-3-3-3-3-3-3-3-3-3-3-3-3--|

|-------------------------------------------------------------------|
|-------------------------------------------------------------------|
|-------------------------------------------------------------------|
|-0-0-0-0-0-0-0-0-0-0-0-0-0-0-0-0--1-1-1-1-1-1-1-1-1-1-1-1-3-3-3-3--|

|-------------------------------------------------------------------|
|-------------------------------------------------------------------|
|-------------------------------------------------------------------|
|-5-5-5-5-5-5-5-5-5-5-5-5-5-5-5-5--3-3-3-3-3-3-3-3-3-3-3-3-3-3-3-3--|

|-------------------------------------------------------------------|
|-------------------------------------------------------------------|
|-------------------------------------------------------------------|
|-0-0-0-0-0-0-0-0-0-0-0-0-0-0-0-0--1-1-1-1-1-1-1-1-1-1-1-1-1-1-1-1--|

Chorus part 2:
|--------------------------------------------------------------------|
|--------------------------------------------------------------------| 2x
|--------------------------------------------------------------------|
|-5-5-5-5-5-5-5-5--3-3-3-3-3-3-3-3--0-0-0-0-0-0-0-0--1-1-1-1-1-1-1-1-|

Bridge 2:
|-----------------------------------------------------------|
|-----------------------------------------------------------| 2x
|-----------------------------------------------------------|
|-5-5-5-5-5-5-5-5-5-5-5-5-5-5-5-5-5-5-5-5-5-5-5-5--0-0--1-1-|

End:
|----------------|
|----------------|
|----------------|
|-0-0-1-1--5---\-|
           (let ring and slide down)
            

comments powered by Disqus
↑ Back to top | In This Moment Bass for Prayers. Lyrics for acoustic guitar and electric guitar. Tablatures and chords are parodies/interpretations of the original songs. You may use it for private study, scholarship, research or language learning purposes only