>
 >
Prayers

Prayers Guitar Tabs

In This Moment - Prayers chords, tabs, tablatures, lyrics

Guitar lessons | Add/correct | Request | Top 50 tabs Artists:  A B C D E F G H I J K L M N O P Q R S T U V W X Y Z 0-9

Prayers Guitar Tabs – In This Moment

CD, Sheet music, Poster

Do you like Prayers? Share with your friends now
Bass TabsTabsTabs v2
My first complete tab here so give me some pointers.
I tabbed mostly Chris' part but gave the intro octaves and some harmonies.
All you have to figure out is exact rythyms and palm mutes.
Good luck.

   Intro
E||------------------------------------------------------------------------|
B||------------------------------------------------------------------------|
G||------------------------------------------------------------------------|
D||-12-12----------12--------12----------12-----12-12----------------------|
A||-10-10----------10--------10----------10-----10-10----------------------|
E||--------0-0-0-0----0-0-0-0----0-0-0-0----0-0-------0-0------------------|
B||------------------------------------------------------------------------|

           
E||-------------------------------------------------------------------------|
B||-------------------------------------------------------------------------|
G||-------------------------------------------------------------------------|
D||-12-12----------12--------12----------12-----12-12-----------------------|
A||--9--9-----------9---------9-----------9------9s10-----------------------|
E||--------0-0-0-0----0-0-0-0----0-0-0-0----0-0----------0-0----------------|
B||-------------------------------------------------------------------------|


E||------------------------------------------------------------------------|
B||------------------------------------------------------------------------|
G||------------------------------------------------------------------------|
D||-12-12-----------12-----------12-------------12-------12-12-------------|
A||--9--9------------9------------9--------------9--------9--9-------------|
E||-10-10--10101010-10--10101010-10---10101010--10--1010-10-10-------------|
B||------------------------------------------------------------------------|

E||------------------------------------------------------------------------|
B||------------------------------------------------------------------------|
G||------------------------------------------------------------------------
D||-12-12-----------12-----------12-------------12-------------------------|
A||-10-10-----------10-----------10-------------10-------12-12-------------|
E||--8--8--8-8-8-8---8--8-8-8-8---8---8-8-8-8----8--8-8--10-10-------------|
B||------------------------------------------------------------------------|

Intro pt 2
----------------------------------|----------------------------------|
----------------------------------|----------------------------------|
----------------------------------|----------------------------------|
--14--14--14--14--14--14--14--14--|--14--17--17--17--17--16--16--16--|
---x---x---x---x---x---x---x---x--|---x---x---x---x---x---x---x---x--|
--12--12--12--12--12--12--12--12--|--12--15--15--15--15--14--14--14--|
----------------------------------|----------------------------------|


----------------------------------|----------------------------------|
----------------------------------|----------------------------------|
----------------------------------|----------------------------------|
--12--12--12--12--12--12--12--12--|--12--14--14--14--14--16--16--16--|
---x---x---x---x---x---x---x---x--|---x---x---x---x---x---x---x---x--|
--10--10--10--10--10--10--10--10--|--10--12--12--12--12--14--14--14--|
----------------------------------|----------------------------------|


--------------------------|----------------------------|
--------------------------|----------------------------|
--------------------------|----------------------------|
--9--9--9--9--9--9--9--9--|--9--7--7--7--9--9--10--10--|
--x--x--x--x--x--x--x--x--|--x--x--x--x--x--x---x---x--|
--7--7--7--7--7--7--7--7--|--7--5--5--5--7--7---8---8--|
--------------------------|----------------------------|


----------------------------------|----------------------------------|
----------------------------------|----------------------------------|
----------------------------------|----------------------------------|
--10--10--10--10--10--10--10--10--|--10--10--10--10--12--12--12--12--|
---x---x---x---x---x---x---x---x--|---x---x---x---x---x---x---x---x--|
---8---8---8---8---8---8---8---8--|---8---8---8---8--10--10--10--10--|
----------------------------------|----------------------------------|


Verse 1
----------------------------------------------------------|
----------------------------------------------------------|
----------------------------------------------------------|
----------------------------------------------------------|
----------------------------------------------------------|
----------------------------------------------------------|
--0-0-0-----0-0-0----------------0---0----0--0--0---------|


-----------------------------------------------------------|
-----------------------------------------------------------|
-----------------------------------------------------------|
-----------------------------------------------------------|
--------------------------------9-7h9p7--------------------|
-------------------------10-9-7----------9-10--------------|
--0-0-0----0-0-0-------------------------------------------|

                         Harmony
                     D|--------7-5h7p5--------------------|
                     A|--9-7-5---------7-9----------------|
                         
----------------------------------------------------------|
----------------------------------------------------------|
----------------------------------------------------------|
----------------------------------------------------------|
----------------------------------------------------------|
----------------------------------------------------------|
--0-0-0-----0-0-0----------------0---0----0--0--0---------|






----------------------------------------------------------|
----------------------------------------------------------|
----------------------------------------------------------|
-------------------------4---5-4--------------------------|
-----------------------5---5-----5s7----------------------|
----------------------------------------------------------|
--0-0-0-----0-0-0-----------------------------------------|

                      Harmony
                   A|-----5---7-5---------------------|
                   E|---7---7-----7s9-----------------|

----------------------------------------------------------|
----------------------------------------------------------|
----------------------------------------------------------|
----------------------------------------------------------|
----------------------------------------------------------|
----------------------------------------------------------|
--0-0-0----0--0--0--0--0-0-0-------0--0--0--0-0-0---0-0-0-|



----------------------------------------------------------|
----------------------------------------------------------|
------------------------------------6s7-7s6-6s7-----------|
------------------------------------x---x---x-x-----------|
------------------------------------4s5-5s4-4s5-----------|
----------------------------------------------------------|
--0-0-0----0--0--0--0--0-0-0------0-----------------------|

                                 Harmony
                               D|--7s9-9s7-7s9-----------|
                               A|--x-x-x-x-x-x-----------|
                               E|--5s7-7s5-5s7-----------|

----------------------------------------------------------|
----------------------------------------------------------|
----------------------------------------------------------|
----------------------------------------------------------|
----------------------------------------------------------|
----------------------------------------------------------|
--0-0-0----0--0--0--0--0-0-0-------0--0--0--0-0-0---0-0-0-|



----------------------------------------------------------|
----------------------------------------------------------|
----------------------------------------------------------|
----------------------------------------------------------|
----------------------------------------------------------|
----------------------------------5-5-5-3-3-3-------------|
--0-0-0----0--0--0--0--0--0-------3-3-3-1-1-1-------------|

Chorus: use intro chords.

verse 2: repeat verse 1

Chorus


Bridge
---------------------------------------------------|
---------------------------------------------------|
---------------------------------------------------|
---------------------------------------------------|
---------------------------------------------------|
--12tr--10tr--7tr--8tr--12tr--10tr--7tr--8tr-------|
---------------------------------------------------|



Breakdown
-----------------------------------------------------------------------|
-----------------------------------------------------------------------|
-----------------------------------------------------------------------|
-----------------------------------------------------------------------|
----5h7-----5h7-----5h7---------5h7-----5h7------------7h8p7p5-7p5-----|
--------0-0-----0-0-----0-0-0-0-----0-0-----0-0-0-0----------------8p7-|
-----------------------------------------------------------------------|



-----------------------------------------------------------------------|
-----------------------------------------------------------------------|
-----------------------------------------------------------------------|
-----------------------------------4s5---5s7---------------------------|
----5h7-----5h7-----5h7------------2s3---3s5---------------------------|
--------0-0-----0-0-----0-0-0-0----------------------------------------|
-----------------------------------------------------------------------|


Chorus

Intro 2

Bridge

Breakdown

End with
----------------------------------------------|
----------------------------------------------|
----------------------------------------------|
----------------------------------------------|
---4s5-5s7--4s5--5s7--------------------------|
---2s3-3s5--2s4--3s5-------7~~~---------------|
---------------------------5~~~---------------|





Comments


Popular In This Moment tabs & chords
Beautiful Tragedy Bass Tabs
Whore Chords
Beautiful Tragedy Tabs
Forever Intro 1 Tabs
Scarlet Tabs
The Gun Show Intro Tabs
When The Storm Subsides 2 Tabs
When The Storm Subsides Intro Tabs
Endless Days And Nights Forever Ukulele
The Promise Into The Light Ukulele


Song lyrics



↑ Back to top | Tablatures and chords are parodies/interpretations of the original songs. You may use it for private study, scholarship, research or language learning purposes only
© 2014 AZChords.com Contact us | Privacy policy | DMCA | Add/correct tabs | Request tabs | Top 50 tabs