» » »

In This Moment, Prayers Tabs (ver.2)

Artists:  A B C D E F G H I J K L M N O P Q R S T U V W X Y Z # 

Prayers Tabs (ver.2)

In This Moment Tabs
 Rating:
3/5 (8 votes)
Prayers lessons Tabs too difficult? Try these video lessons and learn fast
                (Intro)
My first post here.
everyone gets this part wrong so i watched chris' hands live so im 100 percent 
sure this is correct.

E||------------------------------------------------------------------------|
B||------------------------------------------------------------------------|
G||------------------------------------------------------------------------|
D||-12-12----------12--------12----------12-----12-12----------------------|
A||-10-10----------10--------10----------10-----10-10----------------------|
E||--------0-0-0-0----0-0-0-0----0-0-0-0----0-0-------0-0------------------|
B||------------------------------------------------------------------------|


E||-------------------------------------------------------------------------|
B||-------------------------------------------------------------------------|
G||-------------------------------------------------------------------------|
D||-12-12----------12--------12----------12-----12-12-----------------------|
A||--9--9-----------9---------9-----------9------9s10-----------------------|
E||--------0-0-0-0----0-0-0-0----0-0-0-0----0-0----------0-0----------------|
B||-------------------------------------------------------------------------|


E||------------------------------------------------------------------------|
B||------------------------------------------------------------------------|
G||------------------------------------------------------------------------|
D||-12-12-----------12-----------12-------------12-------12-12-------------|
A||--9--9------------9------------9--------------9--------9--9-------------|
E||-10-10--10101010-10--10101010-10---10101010--10--1010-10-10-------------|
B||------------------------------------------------------------------------|

E||------------------------------------------------------------------------|
B||------------------------------------------------------------------------|
G||------------------------------------------------------------------------|
D||-12-12-----------12-----------12-------------12-------12-12-------------|
A||-10-10-----------10-----------10-------------10--------x--x-------------|
E||--8--8--8-8-8-8---8--8-8-8-8---8---8-8-8-8----8--8-8--10-10-------------|
B||------------------------------------------------------------------------|

repeat this twice
use the octaves from Mr Lordi's tab.
use the intro chords for the chorus.
ill post a complete tab later.
            
Submit corrections

comments powered by Disqus
↑ Back to top | In This Moment Tabs for Prayers. Lyrics for acoustic guitar and electric guitar. Tablatures and chords are parodies/interpretations of the original songs. You may use it for private study, scholarship, research or language learning purposes only