>
 >
When The Storm Subsides

When The Storm Subsides Guitar Tabs

In This Moment - When The Storm Subsides chords, tabs, tablatures, lyrics

Guitar lessons | Add/correct | Request | Top 50 tabs Artists:  A B C D E F G H I J K L M N O P Q R S T U V W X Y Z 0-9

When The Storm Subsides Guitar Tabs – In This Moment

CD, Sheet music, Poster

Do you like When The Storm Subsides? Share with your friends now
TabsTabs v2Tabs v3
In This Moment - When The Storm Subsides

Drop D tuning (DADGBe)

INTRO

E|--------4---5---4---------4-----------4---5---4---------4---|
G|----7-------------7---5-----5-----7-------------7---5-----5-|
B|--6---6---6---6-----6---6-------6---6---6---6-----6---6-----| (once) 
D|------------------------------------------------------------|
A|------------------------------------------------------------|
D|------------------------------------------------------------|


E|--------4---5---4---------4-----------4---5---4---------4---|
G|----7-------------7---5-----5-----7-------------7---5-----5-|
B|-(6)--6---6---6-----6---6------(6)--6---6---6-----6---6-----| (9 times) 
D|------------------------------------------------------------|
A|------------------------------------------------------------|
D|--0-----------------------------4---------------------------|


BRIDGE

E|-----------------|       
G|-----------------|       
B|-9-------4-------|       
D|-7-(X8)--2-------|        
A|-5-------2-(X8)--|
D|-0-------2-------|

VERSE


I've been driving ...

E|------------------------|
G|------------------------|
B|-----6-------6----------|
D|-----7-------9----------| (repeat 4 times for verse) 
A|-----9-(x8)--7-(x8)-----|
D|-----0-------7----------|

CHORUS

All I know is this all fades...
 
E|------------------------|
G|------------------------|
B|-----6-------6----------|
D|-----7-------9----------| (repeat 3 times) 
A|-----9-(x8)--7-(x8)-----|
D|-----0-------7----------|

E|------------------------|
G|------------------------|
B|-----6-------4----------|
D|-----7-------2----------|  
A|-----9-(x7)--2-(x7)-----|
D|-----0-------2----------|

BRIDGE

Just say you'll be there for me
Please say that you'll be there
Just say that you'll be my side
When the storm subsides

E|------------------------------------------------|
G|------------------------------------------------|
B|-9-------4-------66--------------9------4-------|
D|-7-(X8)--2-------44-7--6-666666--7------2-------|  
A|-5-------2-(X8)--44-4--4-777777--7-(X6)-2-(X2)--|
D|-0-------2-------44-4--4-444444--7------2-------|

E|----------------------------------------|
G|----------------------------------------|
B|-9-------4-------66--------------9------|
D|-7-(X8)--2-------44-7--6-666666--7------|  
A|-5-------2-(X8)--44-4--4-777777--7-(X8)-|
D|-0-------2-------44-4--4-444444--7------|

VERSE

All these years beneath the skin...

E|------------------------|
G|------------------------|
B|-----6-------6----------|
D|-----7-------9----------| (repeat 4 times for verse) 
A|-----9-(x8)--7-(x8)-----|
D|-----0-------7----------|

CHORUS

All I know is this all fades...
 
E|------------------------|
G|------------------------|
B|-----6-------6----------|
D|-----7-------9----------| (repeat 3 times) 
A|-----9-(x8)--7-(x8)-----|
D|-----0-------7----------|

E|------------------------|
G|------------------------|
B|-----6-------4----------|
D|-----7-------2----------|  
A|-----9-(x7)--2-(x7)-----|
D|-----0-------2----------|

BRIDGE

Just say that you'll be with me
Please say that you'll be there
Just say that you'll be my side
When the storm subsides

E|------------------------------------------------|
G|------------------------------------------------|
B|-9-------4-------66--------------9------4-------|
D|-7-(X8)--2-------44-7--6-666666--7------2-------|  
A|-5-------2-(X8)--44-4--4-777777--7-(X6)-2-(X2)--|
D|-0-------2-------44-4--4-444444--7------2-------|

E|----------------------------------------|
G|----------------------------------------|
B|-9-------4-------66--------------9------|
D|-7-(X8)--2-------44-7--6-666666--7------|  
A|-5-------2-(X8)--44-4--4-777777--7-(X8)-|
D|-0-------2-------44-4--4-444444--7------|


E|-------------------------------|
G|-------------------------------|
B|-9-------4-------6------9------|
D|-7-(X8)--2-------4------9------| (repeat 2 times) 
A|-5-------2-(X8)--4-(X8)-7-(X8)-|
D|-0-------2-------4------7------|

OUTRO


E|--------4---5---4---------4-----------4---5---4---------4---|
G|----7-------------7---5-----5-----7-------------7---5-----5-|
B|-(6)--6---6---6----(6)--6------(6)--6---6---6----(6)--6-----|  
D|------------------------------------------------------------|
A|------------------------------------------------------------|
D|--4-----------------4-----------0-----------------0---------|

E|--------4---5---4---------4-------4--|
G|----7-------------7---5-----5-----7--|
B|-(6)--6---6---6-----6---6---------6--|   
D|----------------------------------4--|
A|-------------------------------------|
D|--4-------------------------------4--|





Comments


Popular In This Moment tabs & chords
Forever Bass Tabs
A Star-crossed Wasteland Chords
Adrenalize Chords
The Promise: Into The Light Chords
Beautiful Tragedy Tabs
Beautiful Tragedy 1 Tabs
Call Me 1 Tabs
Lost At Sea Tabs
The Gun Show Intro Tabs
The Legacy Of Odio Tabs


Song lyrics



↑ Back to top | Tablatures and chords are parodies/interpretations of the original songs. You may use it for private study, scholarship, research or language learning purposes only
© 2014 AZChords.com Contact us | Privacy policy | DMCA | Add/correct tabs | Request tabs | Top 50 tabs