» » »

In Flames, Zombie Bass tabs (ver.2)

Artists:  A B C D E F G H I J K L M N O P Q R S T U V W X Y Z # 

Zombie Bass tabs (ver.2)

In Flames Tabs
 Rating:
4/5 (4 votes)
Zombie lessons Tabs too difficult? Try these video lessons and learn fast
                Tune Bass to C (C, F, A#, D#)

Intro (0:00)
|------------------------|
|------------------------|
|--0~----------3~--------|
|--------0~----------3~--|

|------------------------|
|------------------------|
|--0~----------3~----5~--|
|--------0~--------------|

|------------------------|
|------------------------|
|--2~----------5~--------|
|--------2~----------5~--|

|------------------------|
|------------------------|
|--2~----------5~----7~--|
|--------2~--------------|

Verse I (0:23)
|---------------------------------|
|---------------------------------|
|---------------------------------|
|-555555555555550-111111111111113-| x4

Verse II (0:46)
|------------------------|
|------------------------|
|--------0~----------3~*-|
|--1~----------3~--------| x2 (*: Last time this note is a staccato note)

Verse I (0:57) x4
Verse II (1:19) x4

Chorus (1:43) (There's really some sort of bass solo here
 but it's too difficult to hear so I play this instead)
|------------------------|
|------------------------|
|--------2~----------5~--|
|--0~----------3~--------| x3

|-----------------------------|
|-----------------------------|
|--------2~-------------------|
|--0~----------3-33-5-55-5-5--|

Chorus Fill (2:06)
|-------------------|
|-------------------|
|-------------------|
|--3-33-5-55-5--0~--|

Guitar Solo (2:09)
|--------|
|-GUITAR-|
|-(REST)-|
|--------|

Small Fill (2:42)
|-----------------|
|-----------------|
|-5-5-5-5-2-2-2-2-|
|-----------------|

(2:43) (Again, some form of bass solo here)
|------------------------|
|------------------------|
|--------2~----3~----5~--|
|--0~--------------------| x2

(2:54)
|-------------------------------------|
|-------------------------------------|
|-77777777----------33333333-55555555-|
|----------77777777-------------------| x2 (End the last time with a high C)

Guitar Part (3:06)
|--------|
|-GUITAR-|
|-(REST)-|
|--------|

Small Fill (3:15)
Verse I (3:17) x4
Verse II (3:39) x4
Chorus (4:04) x? (?: Until fadeout)
            
Submit corrections

comments powered by Disqus
↑ Back to top | In Flames Bass for Zombie. Lyrics for acoustic guitar and electric guitar. Tablatures and chords are parodies/interpretations of the original songs. You may use it for private study, scholarship, research or language learning purposes only