>
 >
Zombie 2

Zombie 2 Bass Tabs

In Flames - Zombie 2 chords, tabs, tablatures, lyrics

Guitar lessons | Add/correct | Request | Top 50 tabs Artists:  A B C D E F G H I J K L M N O P Q R S T U V W X Y Z 0-9

Zombie 2 Bass Tabs – In Flames

CD, Sheet music, Poster

Do you like Zombie 2? Share with your friends now
Bass TabsBass Tabs v2Bass Tabs v3
Artist - In Flames
Song - Zombie Inc.
Album - Colony

yea the other tabs were missing entire parts, and some key fills that are clearly in the song.

watch the tuning. its every string down 4 steps.

                                                                 
D#||--------------------|------------------|--------------------|
A#||--------------------|------------------|--------------------|
F ||--0-----------------|------------------|--3-----------------|
C ||-----------------0--|------------------|-----------------3--|


                                                                                
------------------|--------------------|------------------|--------------------|
------------------|--------------------|------------------|--------------------|
------------------|--0-----------------|------------------|--3--------------5--|
------------------|-----------------0--|------------------|--------------------|


                                                                       
------------------|-------------------------|-------------------------|
------------------|-------------------------|-------------------------|
------------------|--2----2--2--2--2--2-----|-------------------------|
------------------|----------------------2--|----2--2--2--2--2--2--2--|


                                                                             
-------------------------|------------------------|-------------------------|
-------------4-----------|------------------------|-------------------------|
--5----5h-7-----7--5-----|-------------4h-5h-4/---|--2----2--2--2--2--2-----|
----------------------5--|----5--5h-7-------------|----------------------2--|


                                                                       
-------------------------|----------------------9--|------------------|
-------------------------|----------------4--5-----|------------------|
-------------------------|--5----5--5--7-----------|------------------|
----2--2--2--2--2--2--2--|-------------------------|------------------|


                                                       
|---------------------------|-------------------------|
|*--------------------------|-------------------------|
|*--------------------------|-------------------------|
|---5--5--5--5--5--5--5--5--|--5--5--5--5--5--5--0----|


                                                                                
--------------------------|-------------------------|--------------------------|
--------------------------|-------------------------|--------------------------|
--------------------------|-------------------------|--------------------------|
--1--1--1--1--1--1--1--1--|--1--1--1--1--1--1--3----|--5--5--5--5--5--5--5--5--|


                                                     
-------------------------|--------------------------|
-------------------------|--------------------------|
-------------------------|--------------------------|
--5--5--5--5--5--5--0----|--1--1--1--1--1--1--1--1--|


                      repeat once                                                                     
---------------------------||-------------------|-------------------|
--------------------------*||-------------------|-------------------|
-----3--2--3--5--3--2-----*||-------------------|--0----------------|
--1--------------------3---||--1----------------|-------------------|


                                                                  
-------------------|-------------------------|-------------------|
-------------------|-------------------------|-------------------|
-------------------|--3----3--3--3--2--2--2--|-------------------|
--3----------------|-------------------------|--1----------------|


                                                            
-------------------|-------------------|-------------------|
-------------------|-------------------|-------------------|
--0----------------|-------------------|--3----------------|
-------------------|--3----------------|-------------------|


                                                       
|---------------------------|-------------------------|
|*--------------------------|-------------------------|
|*--------------------------|-------------------------|
|---5--5--5--5--5--5--5--5--|--5--5--5--5--5--5--0----|


                                                                                
--------------------------|-------------------------|--------------------------|
--------------------------|-------------------------|--------------------------|
--------------------------|-------------------------|--------------------------|
--1--1--1--1--1--1--1--1--|--1--1--1--1--1--1--3----|--5--5--5--5--5--5--5--5--|


                                                     
-------------------------|--------------------------|
-------------------------|--------------------------|
-------------------------|--------------------------|
--5--5--5--5--5--5--0----|--1--1--1--1--1--1--1--1--|


                        repeat once                                          
---------------------------||-------------------|-------------------|
--------------------------*||-------------------|-------------------|
-----3--2--3--5--3--2-----*||-------------------|--0----------------|
--1--------------------3---||--1----------------|-------------------|


                                                                  
-------------------|-------------------------|-------------------|
-------------------|-------------------------|-------------------|
-------------------|--3----3--3--3--2--2--2--|-------------------|
--3----------------|-------------------------|--1----------------|


                                                                  
-------------------|-------------------|-------------------------|
-------------------|-------------------|-------------------------|
--0----------------|-------------------|--3----5--2--3-----2-----|
-------------------|--3----------------|----------------5-----3--|


                                                            
-------------------|-------------------|-------------------|
-------------------|-------------------|-------------------|
-------------------|--0----------------|-------------------|
--1----------------|-------------------|--3----------------|


                                                                  
-------------------------|-------------------|-------------------|
-------------------------|-------------------|-------------------|
--3----3--3--3--2--2--2--|-------------------|--0----------------|
-------------------------|--1----------------|-------------------|


                                                                  
-------------------|-------------------------|-------------------|
-------------------|-------------------------|-------------------|
-------------------|--3----5--2--3-----2-----|--3----------------|
--3----------------|----------------5-----3--|-------------------|


                                                                              
-------------------------|-------------------------|-------------------------|
-------------------------|-------------------------|-------------------------|
----------------------2--|----2--2--2--2--2--2--2--|-------------2h-3h-2/-5--|
--0----0--0--0--0--0-----|-------------------------|--3----3h-5--------------|


                                                                                
---------------------------|-------------------------|-------------------------|
----------4h-5h-4--4h5h4---|-------------------------|-------------------------|
----5h-7-----------------7-|----------------------2--|----2--2--2--2--2--2--2--|
---------------------------|--0----0--0--0--0--0-----|-------------------------|


                                                                              
-------------------------|-------------------------|-------------------------|
-------------------------|----------4h-5h-4--------|-------------------------|
-------------2h-3h-2/-5--|----5h-7-----------7h-5--|----------------------2--|
--3----3h-5--------------|-------------------------|--0----0--0--0--0--0-----|


                                                                                
-------------------------|-------------------------|---------------------------|
-------------------------|-------------------------|----------4h-5h-4--4h5h4---|
----2--2--2--2--2--2--2--|-------------2h-3h-2/-5--|----5h-7-----------------7-|
-------------------------|--3----3h-5--------------|---------------------------|


                                                                              
-------------------------|-------------------------|-------------------------|
-------------------------|-------------------------|-------------------------|
----------------------2--|----2--2--2--2--2--2--2--|-------------2h-3h-2/-5--|
--0----0--0--0--0--0-----|-------------------------|--3----3h-5--------------|


                                                                  
-------------------------|--------------------|------------------|
----------4h-5h-4--------|--------------------|------------------|
----5h-7-----------7h-5--|--------------------|------------------|
-------------------------|--3--------------5--|------------------|


    hold as long as you can                                                                         
-------------------|------------------|
-------------------|------------------|rest for 21 bars
-------------------|------------------|
--0----------------|------------------|

(acoustic part)
 

                                                                            
--------------------------|-----------2--4-------|-------------------------|
--------------------------|--2-------------------|-------------------------|
--5--5--5--5--2--2--2--2--|-------------------2--|----2--2--2--2--2--2--2--|
--------------------------|----------------------|-------------------------|


                                                                               
-------------------------|-------------------------|-----2--4--5--4--2--------|
----------2--3h-5--3-----|-------4h-5--7--5h-4-----|--------------------4-----|
--3----5--------------5--|----7-----------------7--|-----------------------2--|
-------------------------|-------------------------|--0-----------------------|


                                                                              
-------------------------|-------------------------|-------------------------|
-------------------------|----------2--3h-5--3-----|-------------------------|
----2--2--2--2--2--2--2--|--3----5--------------5--|----5--5--5--5--5--5--5--|
-------------------------|-------------------------|-------------------------|


                                                                                
|--------------------------|-------------------------|-------------------------|
|*-------------------------|-------------------------|-------------------------|
|*--7----7--7--7--7--7--7--|----------------------3--|----3--3--3--3--3--3--3--|
|--------------------------|--7----7--7--7--7--7-----|-------------------------|


                          repeat once                                        
--------------------------||------------------|------------------|
-------------------------*||------------------|------------------|
--5----5--5--5--5--5--7--*||------------------|------------------|
--------------------------||------------------|------------------|

(short accoustic part)
                                                                            
------------------|------------------|------------------|------------------|
------------------|------------------|------------------|------------------|
------------------|------------------|------------------|------------------|
------------------|------------------|------------------|------------------|


                                                                           
------------------|--------------------------||---------------------------|
------------------|--------------------------||*--------------------------|
------------------|--5--5--5--5--2--2--2--2--||*--------------------------|
------------------|--------------------------||---5--5--5--5--5--5--5--5--|


                                                                               
-------------------------|--------------------------|-------------------------|
-------------------------|--------------------------|-------------------------|
-------------------------|--------------------------|-------------------------|
--5--5--5--5--5--5--0----|--1--1--1--1--1--1--1--1--|--1--1--1--1--1--1--3----|


                                                                                
--------------------------|-------------------------|--------------------------|
--------------------------|-------------------------|--------------------------|
--------------------------|-------------------------|--------------------------|
--5--5--5--5--5--5--5--5--|--5--5--5--5--5--5--0----|--1--1--1--1--1--1--1--1--|


                          repeat once                                           
---------------------------||-------------------|-------------------|
--------------------------*||-------------------|-------------------|
-----3--2--3--5--3--2-----*||-------------------|--0----------------|
--1--------------------3---||--1----------------|-------------------|


                                                                  
-------------------|-------------------------|-------------------|
-------------------|-------------------------|-------------------|
-------------------|--3----3--3--3--2--2--2--|-------------------|
--3----------------|-------------------------|--1----------------|


                                                                  
-------------------|-------------------|-------------------------|
-------------------|-------------------|-------------------------|
--0----------------|-------------------|--3----5-----3-----2-----|
-------------------|--3----------------|----------7-----5-----3--|


                                                            
-------------------|-------------------|-------------------|
-------------------|-------------------|-------------------|
-------------------|--0----------------|-------------------|
--1----------------|-------------------|--3----------------|


                                                                  
-------------------------|-------------------|-------------------|
-------------------------|-------------------|-------------------|
--3----3--3--3--2--2--2--|-------------------|--0----------------|
-------------------------|--1----------------|-------------------|


                                                                  
-------------------|-------------------------|-------------------|
-------------------|-------------------------|-------------------|
-------------------|--3----5-----3-----2-----|--3----------------|
--3----------------|----------7-----5-----3--|-------------------|


                                                                                
|--------------------------|-------------------------|-------------------------|
|*-------------------------|-------------------------|-------------------------|
|*----------------------2--|----2--2--2--2--2--2--2--|-------------2h-3h-2/-5--|
|---0----0--0--0--0--0-----|-------------------------|--3----3h-5--------------|


                                                                                
---------------------------|-------------------------|-------------------------|
----------4h-5h-4--4h5h4---|-------------------------|-------------------------|
----5h-7-----------------7-|----------------------2--|----2--2--2--2--2--2--2--|
---------------------------|--0----0--0--0--0--0-----|-------------------------|


                                                                              
-------------------------|-------------------------|-------------------------|
-------------------------|----------4h-5h-4--------|-------------------------|
-------------2h-3h-2/-5--|----5h-7-----------7h-5--|----------------------2--|
--3----3h-5--------------|-------------------------|--0----0--0--0--0--0-----|


                                                                                
-------------------------|-------------------------|---------------------------|
-------------------------|-------------------------|----------4h-5h-4--4h5h4---|
----2--2--2--2--2--2--2--|-------------2h-3h-2/-5--|----5h-7-----------------7-|
-------------------------|--3----3h-5--------------|---------------------------|


                                                                              
-------------------------|-------------------------|-------------------------|
-------------------------|-------------------------|-------------------------|
----------------------2--|----2--2--2--2--2--2--2--|-------------2h-3h-2/-5--|
--0----0--0--0--0--0-----|-------------------------|--3----3h-5--------------|


                          repeat once                                                      
--------------------------||-------------------------|-------------------------|
----------4h-5h-4--------*||-------------------------|-------------------------|
----5h-7-----------7h-5--*||----------------------2--|----2--2--2--2--2--2--2--|
--------------------------||--0----0--0--0--0--0-----|-------------------------|


                                                                                
-------------------------|---------------------------|-------------------------|
-------------------------|----------4h-5h-4--4h5h4---|-------------------------|
-------------2h-3h-2/-5--|----5h-7-----------------7-|----------------------2--|
--3----3h-5--------------|---------------------------|--0----0--0--0--0--0-----|


                                                                              
-------------------------|-------------------------|-------------------------|
-------------------------|-------------------------|----------4h-5h-4--------|
----2--2--2--2--2--2--2--|-------------2h-3h-2/-5--|----5h-7-----------7h-5--|
-------------------------|--3----3h-5--------------|-------------------------|


                                   fade out                                           
-------------------------|-------------------------|-------------------------|
-------------------------|-------------------------|-------------------------|
----------------------2--|----2--2--2--2--2--2--2--|-------------2h-3h-2/-5--|
--0----0--0--0--0--0-----|-------------------------|--3----3h-5--------------|


                                                                                
---------------------------|-------------------------|-------------------------|
----------4h-5h-4--4h5h4---|-------------------------|-------------------------|
----5h-7-----------------7-|----------------------2--|----2--2--2--2--2--2--2--|
---------------------------|--0----0--0--0--0--0-----|-------------------------|


                                                                        
-------------------------|-------------------------|-------------------|
-------------------------|----------4h-5h-4--------|-------------------|
-------------2h-3h-2/-5--|----5h-7-----------7h-5--|-------------------|
--3----3h-5--------------|-------------------------|--0----------------|


                    
------------------||
------------------||
------------------||
------------------||





Comments


Popular In Flames tabs & chords
Swim Bass Tabs
The Jester's Dance Bass Tabs
...As The Future Repeats Today Tabs
Behind Space Tabs
Come Clarity Intro Tabs
Dreamscape Tabs
Pallar Anders Visa Intro Tabs
Pinball Map Tabs
Scream 1 Tabs
Trigger 1 Tabs


Song lyrics



↑ Back to top | Tablatures and chords are parodies/interpretations of the original songs. You may use it for private study, scholarship, research or language learning purposes only
© 2014 AZChords.com Contact us | Privacy policy | DMCA | Add/correct tabs | Request tabs | Top 50 tabs