>
 >
The Jester Race

The Jester Race Guitar Tabs

In Flames - The Jester Race chords, tabs, tablatures, lyrics

Guitar lessons | Add/correct | Request | Top 50 tabs Artists:  A B C D E F G H I J K L M N O P Q R S T U V W X Y Z 0-9

The Jester Race Guitar Tabs – In Flames

CD, Sheet music, Poster

Do you like The Jester Race? Share with your friends now
Bass TabsBass Tabs v2Bass Tabs v3Bass Tabs v4TabsTabs v2Tabs v3
IN FLAMES - JESTER RACE     
                      From the Album THE JESTER RACE   
                       Copyright 1995 Nuclear Blast
                        Version 2.0 - October 2000

Transcription Done By: Jeremy Disten

For Questions, Comments, Corrections, or Newest Version;

Check Out Death Warp, With More Transcriptions On It:

.  - palm mute                          /  - slide up to                       
\  - slide down to                      ~  - vibrato                            
"  - tremelo picking                    () - ghost note
p  - pull off                           h  - hammer-on 


In Flames - Jester Race

C Tuning  (C,F,A#,D#,G,C)

Riff A (Both Gtrs with Delay)
|----------------------------------------------------------------|
|-5-----3---3-----6-----5---5-----3-----5---5-----3--------------|
|-------------------------------------------------------5-----5--|Gtr I
|----------------------------------------------------------------|  
|----------------------------------------------------------------|
|----------------------------------------------------------------|
|                                                                |
|----------------------------------------------------------------|
|----------------------------------------------------------------|
|-5-----4---4-----7-----5---5-----4-----5---5-----4-----2-----2--|Gtr II
|----------------------------------------------------------------|  
|----------------------------------------------------------------|
|----------------------------------------------------------------|


Riff B.1 (Play Riff A Overtop)
|-----------------------------------------------------|
|-----------------------------------------------------|
|-----------------------------------------------------|Gtrs I
|-2-2-2-2-2-2-2-2-2-2-2-2-2-2-2-2-2-2-2-2-2-2-2-2-----|  & II
|-0-0-0-0-0-0-0-0-0-0-0-0-0-0-0-0-0-0-0-0-0-0-0-0-5-5-|
|-.-.-.-.-.-.-.-.-.-.-.-.-.-.-.-.-.-.-.-.-.-.-.-.-3-3-|


Riff B.2 (Play Riff A Overtop)
|-----------------------------------------------------|
|-----------------------------------------------------|
|-----------------------------------------------------|Gtrs I
|-222-2-2-2-2-2-2-222-2-2-2-2-2-2-222-2-2-2-2-2-2-----|  & II
|-000-0-0-0-0-0-0-000-0-0-0-0-0-0-000-0-0-0-0-0-0-5-5-|
|-...-.-.-.-.-.-.-...-.-.-.-.-.-.-...-.-.-.-.-.-.-3-3-|


Riff B.3 (Play Riff A Overtop)
|-----------------------------------------------------|
|-----------------------------------------------------|
|-----------------------------------------------------|Gtrs I
|-222-2-2-222-222-222-2-2-222-222-222-2-2-222-222-----|  & II
|-000-0-0-000-000-000-0-0-000-000-000-0-0-000-000-5-5-|
|-...-.-.-...-...-...-.-.-...-...-...-.-.-...-...-3-3-|


Riff C.1
|-------------------------------------------------------------------|
|-111---0---0---0-3-----1---1---1-0-----1---1---1---3-----3---3---3-|
|-222---2---2---2-2-----2---2---2-2-----2---2---2---2-----4---4---4-|Gtr I
|-222---2---2---2-2-2-2-2-2-2-2-2-2-2-2-2-2-2-2-2---2-----5---5---5-|
|-----0---0---0-----.-.---.---.-----.-.---.---.-----------5---5---5-|
|-----.---.---.---------------------------------------1-1---3---3---|
|                                                                   |
|-------------------------------------------------------------------|
|-111---------------------------------------------------------------|
|-222-2-2-2-2-2-2-2-2-2-2-2-2-2-2-2-2-2-2-2-2-2-2-------------------|Gtr II
|-222-2-2-2-2-2-2-2-2-2-2-2-2-2-2-2-2-2-2-2-2-2-2---3-3-3--3/5--3/5-|
|-000-0-0-0-0-0-0-0-0-0-0-0-0-0-0-0-0-0-0-0-0-0-0---3-3-3--3/5--3/5-|
|-----.-.-.-.-.-.-.-.-.-.-.-.-.-.-.-.-.-.-.-.-.-.---1-1-1--1/3--1/3-|


Riff C.2
|---------------------------------------------------0---------------|
|-1-----0---0---0-3-----1---1---1-0-----1---1---1---------3---3---3-|
|-2-----2---2---2-2-----2---2---2-2-----2---2---2---------4---4---4-|Gtr I
|-2-----2---2---2-2-2-2-2-2-2-2-2-2-2-2-2-2-2-2-2---------5---5---5-|
|---0-0---0---0-----.-.---.---.-----.-.---.---.-----3-----5---5---5-|
|---.-.---.---.-------------------------------------1-1-1---3---3---|
|                                                     . .   .   .   |
|-------------------------------------------------------------------|
|-1-----------------------------------------------------------------|
|-2-2-2-2-2-2-2-2-2-2-2-2-2-2-2-2-2-2-2-2-2-2-2-2-------------------|Gtr II
|-2-2-2-2-2-2-2-2-2-2-2-2-2-2-2-2-2-2-2-2-2-2-2-2---3-3-3--3/5--3/5-|
|-0-0-0-0-0-0-0-0-0-0-0-0-0-0-0-0-0-0-0-0-0-0-0-0---3-3-3--3/5--3/5-|
|---.-.-.-.-.-.-.-.-.-.-.-.-.-.-.-.-.-.-.-.-.-.-.---1-1-1--1/3--1/3-|


Riff C.3
|------------------------------------------------------------p-h-p-p--|
|-5-----3---3-----6-----5---5-----3-----5---5-------5--6--5---3-5-3-0-|Gtr 
|-5-----4---4-----7-----5---5-----4-----5---5-------------------------| III
|---------------------------------------------------------------------|
|---0-0---0---0-0---0-0---0---0-0---0-0---0---0-0---------------------|
|---.-.---.---.-.---.-.---.---.-.---.-.---.---.-.---------------------|
|                                                                     |
|                                                                     |
|---------------------------------------------------------------------|
|-5-----3---3-----6-----5---5-----3-----5---5----------------p-h-p-p--|
|-5-----4---4-----7-----5---5-----4-----5---5-------5--7--5---4-5-4-0-|Gtr 
|---------------------------------------------------------------------| II
|---0-0---0---0-0---0-0---0---0-0---0-0---0---0-0---------------------|
|---.-.---.---.-.---.-.---.---.-.---.-.---.---.-.---------------------|
|                                                                     |
|                                                                     |
|---------------------------------------------------0-----------------|
|-1-----0---0---0-3-----1---1---1-0-----1---1---1---------3---3---3---|
|-2-----2---2---2-2-----2---2---2-2-----2---2---2---------4---4---4---|Gtr
|-2-----2---2---2-2-2-2-2-2-2-2-2-2-2-2-2-2-2-2-2---------5---5---5---| I
|---0-0---0---0-----.-.---.---.-----.-.---.---.-----3-----5---5---5---|
|---.-.---.---.-------------------------------------1-1-1---3---3-----|
                                                      . .   .   .

Riff C.4
|---------------------------------------------------------------------|
|-5-----3---3-----6-----5---5-----3-----5---5-------5---6---5---3---0-|
|-5-----4---4-----7-----5---5-----4-----5---5-------------------------|Gtr 
|---------------------------------------------------------------------| III
|---0-0---0---0-0---0-0---0---0-0---0-0---0---0-0---------------------|
|---.-.---.---.-.---.-.---.---.-.---.-.---.---.-.---------------------|
|                                                                     |
|                                                                     |
|---------------------------------------------------------------------|
|-5-----3---3-----6-----5---5-----3-----5---5-------------------------|
|-5-----4---4-----7-----5---5-----4-----5---5-------5---7---5---4---0-|Gtr
|---------------------------------------------------------------------| II
|---0-0---0---0-0---0-0---0---0-0---0-0---0---0-0---------------------|
|---.-.---.---.-.---.-.---.---.-.---.-.---.---.-.---------------------|
|                                                                     |
|                                                                     |
|---------------------------------------------------0-----------------|
|-1-----0---0---0-3-----1---1---1-0-----1---1---1---------3---3---3---|
|-2-----2---2---2-2-----2---2---2-2-----2---2---2---------4---4---4---|Gtr 
|-2-----2---2---2-2-2-2-2-2-2-2-2-2-2-2-2-2-2-2-2---------5---5---5---| I
|---0-0---0---0-----.-.---.---.-----.-.---.---.-----3-----5---5---5---|
|---.-.---.---.-------------------------------------1-1-1---3---3-----|
                                                      . .   .   .

Riff D
|-----------------------------------------|
|---------------------------------h-p-----|
|---9-7-9---9-7-9--------------9-7-9-7----|Gtr I
|-7-------7-------9---------9----------10-|
|-------------------10-7-10---------------|
|-----------------------------------------|
|                                         |
|-----------------------------------------|
|-1---------------3-----------------------|
|-2-2---2-----2---4-4---4---4-4-----------|Gtr II
|-2-2---2-----2-----2---2---2-2-----------|
|---0-0---0-0---0-----------.-------------|
|-----.---.-.---.-----0---0-----0---------|
                      .   .     .  

|-----------------------------------------|
|-------------------------------~---------|
|---9-7-9---9-7-9-------------9-7---------|Gtr I
|-7-------7-------9---------9-------------|
|-------------------10-7-10---------------|
|-----------------------------------------|
|                                         |
|-----------------------------------------|
|-1---------------3-----------------------|
|-2-2---2-----2---4-4---4---4-4-----------|Gtr II
|-2-2---2-----2-----2---2---2-2-----------|
|---0-0---0-0---0-----------.-------------|
|-----.---.-.---.-----0---0-----0---------|
                      .   .     .

Repeat Riff D (1 Time)
Repeat Riff C.2 (1.5 Times)

Riff C.5
|------------------------------|
|------------------------------|
|-------------------------p-h--|Gtr I
|-3-3--5---------3-3--7--7-5-7-|
|-3-3--5---------3-3--7--------|
|-1-1--3---------1-1--5--------|
|                              |
|------------------------------|
|-------------------------p-h--|
|------------------------5-4-5-|Gtr II
|-3-3--5---------3-3--7--------|
|-3-3--5---------3-3--7--------|
|-1-1--3---------1-1--5--------|
                          
Repeat Riff D (2 Times)
                                              
Riff E
|--------------------------------|
|--------------------------------|
|--------------------------------|
|-2------------------------2-2-2-|Gtr I
|-2------------------------2-2-2-|
|-0------------------------0-0-0-|
|                          . . . |
|--------------------------------|
|--------------------------------|
|--------------------------------|Gtr II
|-2-2---2---2---22-2-2--2----5-4-|
|-2-2---2---2---22-2-2--2--------|
|-0-0---0---0---00-0-0--0--3-----|
                ..         .

Riff F
|-----------------------------------------------------------|
|-----------------------------------------------------------|
|-----------------------------------------------------------|Gtr I
|-2-----2-2---22-2-2--2----~---2--2--2-2---22-2-2--2--------|
|-2-----2-2---22-2-2--2----5---2--2--2-2---22-2-2--2----5~--|
|-0-----0-0---00-0-0--0--3-----0--0--0-0---00-0-0--0--3-----|
|             ..         .                                  |
|-----------------------------------------------------------|
|-----------------------------------------------------------|
|-----------------------------------------------------------|Gtr II
|-2-----2-2---22-2----2----5-4-2-----2-2---22-2----2----5-4-|
|-2-----2-2---22-2----2--------2-----2-2---22-2----2--------|
|-0-----0-0---00-0----0--3-----0-----0-0---00-0----0--3-----|
              ..         .                 ..         .

Riff G
|----------------------------------|
|----------------------------------|
|----------------------------------|Gtr I
|-----/4-2---/5-4----2--0---2--4-5-|
|----------------------------------|
|-0-0------0------0----------------|
| . .      .      .                |
|                                  |
|----------------------------------|
|----------------------------------|
|----------------------------------|Gtr II
|------------------------------7-9-|
|-----/5-3---/7-5---/10-9--10------|
|-0-0------0------0----------------|
  . .      .      .

Repeat Riff G (1 Time)
Repeat Riff F (1 Time)
Repeat Riff G (4 Times)
Repeat Riff D (2 Times)
Repeat Riff F (1 Time)
Repeat Riff G (2 Times)
Repeat Riff F (1 Time)
Repeat Riff G (2 Times)
Repeat Riff C (1 Time)

Riff H.1 (1st solo)
|----------------------------------------------|
|----------------------------------------------|
|-------h-h--p-p-----~-------------------7-~---|Gtr I
|------7-9-10-9-7----7-----------7-9-/10---9---|
|--15\------------10-----------7-.-------------|
|----------------------------------------------|

   h h p p
|-5-7-8-7-5------------------h-p--------~----------------|
|-----------8---10\8--5--6--5-6-5-------5-6-~------------|
|---------------------------------7-5-------7------------|Gtr I
|--------------------------------------------------------|
|--------------------------------------------------------|
|--------------------------------------------------------|

                            h p
|-x-7--8------7--8--10--8-7-8--7-8-7-----------|
|--------10--------------------------10-8-/10--|
|----------------------------------------------|Gtr I
|----------------------------------------------|
|----------------------------------------------|
|----------------------------------------------|

                                            
|--13-12----12----12-13-13fb-13-15-15fb-15-17--|
|--------10----10------------------------------|
|----------------------------------------------|Gtr I
|----------------------------------------------|
|----------------------------------------------|
|----------------------------------------------|

                                                                        
|-17xb-----------(17xb)--------------------|
|------------------------------------------|
|------------------------------------------|Gtr I
|---xb= bend up 1.5 steps------------------|
|------------------------------------------|
|------------------------------------------|
|                                          |
| (2nd solo)                               | 
|------------------------------------------|
|---------------------------------~--------|
|--------------------2-4---5-4--5-4--------|Gtr II
|--5-(5)-fb--5-----------------------------|
|------------*-----------------------------|
|-------------*play note while still bent--|

                                 p
|---------3-------------------------~----|
|-----3563--653---3--------5-6--6-5-3----|
|--245---------545-----------------------|Gtr I
|-5--------------------------------------|
|----------------------------------------|
|----------------------------------------|
|                                        | 
|----------------------------------------|
|-----------------------------------~----|
|--------------------------5-7--7-5-4----|Gtr II
|----------------------------------------|
|----------------------------------------|
|----------------------------------------|


|---------------8-------------8---/12-10-8---------~~-------|
|----10---10-12---10----10-12-------------12-10---10--------|Gtr I
|-------9-------------9-------------------------9-----------|
|---------------------.-------------------------------------|
|-----------------------------------------------------------|
|-----------------------------------------------------------|

                               
|--~----------h---~---------------------|
|--1---/3----3-5--3-----5--6-6fb--(6fb)-|
|---------------------------------------|Gtr I
|---------------------------------------|
|---------------------------------------|
|---------------------------------------|
|                                       |
|---------------------------------------|
|--~----------h---~---------------------|
|--2---/4----4-5--4-----5--7-7fb--(7fb)-|Gtr II
|---------------------------------------|
|---------------------------------------|
|---------------------------------------|


Riff H.2 Rhythm Under Solos
|-----------------------------------------------------------------|
|-----------------------------------------------------------------|
|--2-----2-----2-------------------2-----2-----2------------------|Gtr
|--2-----2-----2-------------------2-----2-----2---------7---7-7--|III
|--0-0-0-0-0-0-0-0-3-3---5---5-5---0-0-0-0-0-0-0-0-3-3---5---5-5--|
|----.-.---.-.---.-1-1---3---3-3-----.-.---.-.---.-1-1------------|

|-----------------------------------------------------------------|
|-----------------------------------------------------------------|
|--2-----2-----2-------------------2-----2-----2------------------|Gtr
|--2-----2-----2-------------------2-----2-----2---------5---5-5--|III
|--0-0-0-0-0-0-0-0-3-3---5---5-5---0-0-0-0-0-0-0-0-3-3---3---3-3--|
|----.-.---.-.---.-1-1---3---3-3-----.-.---.-.---.-1-1------------|

Repeat Riff H.2 (1 Time)
Repeat Riff G (12 Times)

Riff N
|----------------------|
|----------------------|
|----------------------|Gtrs I
|-2-----2---2---22-2\--|  & II
|-2-----2---2---22-2\--|
|-0-----0---0---00-0---|
                ..

Check Out Death Warp, With More Transcriptions On It:





Comments


Popular In Flames tabs & chords
Zombie Bass Tabs
Bottled Tabs
Condemned Tabs
Dismiss The Cynics 1 Tabs
HåRgalåTen Tabs
Hergaleten Tabs
Hive Tabs
March To The Shore Tabs
My Sweet Shadow 1 Tabs
Ropes Intro Tabs


Song lyrics



↑ Back to top | Tablatures and chords are parodies/interpretations of the original songs. You may use it for private study, scholarship, research or language learning purposes only
© 2014 AZChords.com Contact us | Privacy policy | DMCA | Add/correct tabs | Request tabs | Top 50 tabs