>
 >
The Jester Race 1

The Jester Race 1 Bass Tabs

In Flames - The Jester Race 1 chords, tabs, tablatures, lyrics

Guitar lessons | Add/correct | Request | Top 50 tabs Artists:  A B C D E F G H I J K L M N O P Q R S T U V W X Y Z 0-9

The Jester Race 1 Bass Tabs – In Flames

CD, Sheet music, Poster

Do you like The Jester Race 1? Share with your friends now
Bass TabsBass Tabs v2Bass Tabs v3Bass Tabs v4TabsTabs v2Tabs v3
.  =  staccato note
  ~  =  let note ring

First intro (0:00)
|---------------------------------------------------------|
|---------------------------------------------------------|
|---------------------------------------------------------|
|-5-5-5--5-5-5--5-5-5--5-5-5--5-5-5--5-5-5--3-3-3-1-1-1---|

Second intro (0:07)
|--------------------------------------------------|
|--------------------------------------------------|
|--------------------------------------------------|
|-5-5-5--5-5-5--5-5-5--5-5-5--5-5-5--5-5-5--3-3----| x4
					    . .

Verse I (0:35)
|---------------------------------------------------------------|
|---------------------------------------------------------------|
|---------------------------------------------------------------|
|-5-5-5-5-5-5-5-5-5-5-5-5-5-5-5-5-5-5-5-5-5-5-5-5-5--1-1-1-3~---| x4

Chorus (1:03)
|------------------------------------------------------------------|
|------------------------------------------------------------------|
|------------------------------------------------------------------|
|-5-5-5-5-5-5-5-5-0-0-0-0-0-0-0-0-5-5-5-5-5-5-5-5-0-0-0-0-0-0-0-0--| x2

Verse x2 (1:17)

Pre-chorus (1:31)
|------------------------------|
|------------------(7p5h7~)----|
|------------------------------|
|--1-1-1-3~--------------------|

Chorus x2 (1:33)

(1:46)  (1:47)       (1:49)
|-------|------------|-----------|
|-------|---GUITAR---|-----------|
|-------|---(REST)---|-----------|
|--5----|------------|-0-3-2-----|
   .

Verse II (1:51)
|---------------------------------|
|---------------------------------|
|-----------------------(10-9)----|
|--0-0-0-0-0-0-0-0-0--------------| x2

Verse III (1:56)
|-------------------------------|
|-----------------------------9-|
|-----9-7---10-9---10-9-10-12---|
|-0-0-----0------0--------------| x2

Verse II x2 (2:04)
Verse III x4 (2:10)
Chorus x2 (2:24)
Verse II x2 (2:38)
Verse III x2 (2:44)
Verse II x2 (2:51)
Verse III x4 (2:58)
Second intro x4 (3:11)

Solo (3:39)
|------------------------|
|------------------------|
|------------------------|
|-5-5-5-5-5-5--1-1-3-3---| x8

End solo with a G (4:06) if you like

Verse III x12 (4:06)

End (4:48)
|-------------|
|-------------|
|-------------|
|-0-0-0-000---|





Comments


Popular In Flames tabs & chords
Egonomic Bass Tabs
Free Fall Bass Tabs
Bullet Ride Tabs
Cloud Connected 2 Tabs
Dialogue With The Stars 2 Tabs
Enter Tragedy Tabs
In Search For I Tabs
Scream 1 Tabs
The Mirrors Truth 1 Tabs
Trigger Ukulele


Song lyrics



↑ Back to top | Tablatures and chords are parodies/interpretations of the original songs. You may use it for private study, scholarship, research or language learning purposes only
© 2014 AZChords.com Contact us | Privacy policy | DMCA | Add/correct tabs | Request tabs | Top 50 tabs