>
 >
Swim 1

Swim 1 Bass Tabs

In Flames - Swim 1 chords, tabs, tablatures, lyrics

Guitar lessons | Add/correct | Request | Top 50 tabs Artists:  A B C D E F G H I J K L M N O P Q R S T U V W X Y Z 0-9

Swim 1 Bass Tabs – In Flames

CD, Sheet music, Poster

Do you like Swim 1? Share with your friends now
Bass TabsBass Tabs v2Bass Tabs v3Bass Tabs v4Tabs
(0:00)
|----------|
|--DRUMS---|
|--(REST)--|
|----------|


Intro/Chorus (0:01)
|--------------------------------------|
|--------------------------------------|
|------1~------------------------------|
|------------3-3-4-----1-1-3-----------| x2
|--4-4-----------------------1~--------|


(0:12)    (0:18)
|--------||--------|
|-GUITAR-||--------|
|-(REST)-||--------|
|--------||--------|
|--------||-1-1~---|


(0:22)
|------------------------------|
|------------------------------|
|--5--3--1---------------------|
|-----------4--3-1-------------| x2
|------------------4-3---------|


Verse (0:24)
|----------------------------------------------------------------|
|----------------------------------------------------------------|
|---------------1-1-1-1------------------------1-1-1-1-----------|
|-----------------------4-4-4-4------------------------4-4-4-4---| x2
|--1-1--1-1--1--------------------1-1--1-1--1--------------------|
   . .  . .  .			  . .  . .  .

Pre-Chorus (0:35)
|-------------------------------------------------------------------|
|-------------------------------------------------------------------|
|--------------------------------------------------1-1-1-1----------|
|------------------3-3-3-3-4-4-4-4-------------------------4-4-4-4--| x2
|--1-1-1-1-1-1-1-1-----------------1-1-1-1-1-1-1-1------------------|

Verse x2 (0:47)
Pre-Chorus x2 (0:59)
Chorus x4 (1:10)

Solo Part I (1:33)
|----------------------------------------------------------------|
|----------------------------------------------------------------|
|---------------1-1-1--------------------------1-1-1-1-----------|
|---------------------4-4-4-4-4------------------------4-4-4-4---| x2
|--1-1--1-1--1--------------------1-1--1-1--1--------------------|

Interlude (1:45)
|-------------------------------------------------|
|-------------------------------------------------|
|-------------------------------1-1-1-1-1---------|
|---------------------4--4-4-4--------------------| x2
|-1--1-1-1--1--1-1-1-----------------------1-4-3--|
  .  . . .  .  . . .  .  . . .

Solo Part II (1:56)*
|--------------------------------------2-1-|
|---------------1111--------------1331-----|
|----------1111/---------------11/---------|
|------------------------------------------|
|-11111111------------11111111-------------|

|-----------------------------------------------|
|-----------------------------------------------|
|----------1111/6666-----------11111111---------|
|-----------------------------------------------|
|-11111111------------11111111------------------|


*I think is something like the real thing but I don't know.

Solo Part I x2 (2:08)
Verse x2 (2:19)
Pre-Chorus x2 (2:31)
Chorus x4 (2:42)

End (3:05)
|---------------------|
|---------------------|
|---------------------|
|--1-1-3--------------|
|--------1~--1-1-1-1--|





Comments


Popular In Flames tabs & chords
Artifacts Of The Black Rain Bass Tabs
Pinball Map Bass Tabs
Acoustic Medley 1 Tabs
Black And White 1 Tabs
Clad In Shadows 9 Tabs
Evil In A Closet 1 Tabs
Insipid 2000 Tabs
My Sweet Shadow Tabs
Pallar Anders Visa Intro 1 Tabs
Reflect The Storm Tabs


Song lyrics



↑ Back to top | Tablatures and chords are parodies/interpretations of the original songs. You may use it for private study, scholarship, research or language learning purposes only
© 2014 AZChords.com Contact us | Privacy policy | DMCA | Add/correct tabs | Request tabs | Top 50 tabs