>
 >
Swim

Swim Bass Tabs

In Flames - Swim chords, tabs, tablatures, lyrics

Guitar lessons | Add/correct | Request | Top 50 tabs Artists:  A B C D E F G H I J K L M N O P Q R S T U V W X Y Z 0-9

Swim Bass Tabs – In Flames

CD, Sheet music, Poster

Do you like Swim? Share with your friends now
Bass TabsBass Tabs v2Bass Tabs v3Bass Tabs v4Tabs

Tuning: C (tune every string down two steps from standard tuning)

  .  =  staccato note
  ~  =  let note ring

(0:00)
|----------|
|--DRUMS---|
|--(REST)--|
|----------|

Intro/Chorus (0:01)
|--------------------------------------|
|--------------------------------------|
|------5~----2-2-3~----0-0-2-----------|
|--3-3-----------------------0~--------| x2

(0:12)    (0:18)
|--------||--------|
|-GUITAR-||--------|
|-(REST)-||--------|
|--------||-0-0~---|

(0:22)
|------------------------------|
|------------------------------|
|--9--7--5---------------------|
|-----------8--7-5-3-2---------| x2

Verse (0:24)
|----------------------------------------------------------------|
|----------------------------------------------------------------|
|---------------5-5-5-5-3-3-3-3----------------5-5-5-5-3-3-3-3---|
|--0-0--0-0--0--------------------0-0--0-0--0--------------------| x2
   . .  . .  .			  . .  . .  .

Pre-Chorus (0:35)
|-------------------------------------------------------------------|
|-------------------------------------------------------------------|
|------------------2-2-2-2-3-3-3-3-----------------5-5-5-5-3-3-3-3--|
|--0-0-0-0-0-0-0-0-----------------0-0-0-0-0-0-0-0------------------| x2

Verse x2 (0:47)
Pre-Chorus x2 (0:59)
Chorus x4 (1:10)

Solo Part I (1:33)
|-------------------------------------------------------------------|
|-------------------------------------------------------------------|
|-----------------3-3-3-3-5-5-5-5------------------3-3-3-3-5-5-5-5--|
|-0-0-0-0-0-0-0-0------------------0-0-0-0-0-0-0-0------------------| x2

Interlude (1:45)
|-------------------------------------------------|
|-------------------------------------------------|
|---------------------3--3-3-3--5-5-5-5-5---------|
|-0--0-0-0--0--0-0-0-----------------------0-3-2--| x2
  .  . . .  .  . . .  .  . . .

Solo Part II (1:56)
Haven't tabbed this part yet, but listen and you will hear a 
small bass solo that doesn't sound too tough.

Solo Part I x2 (2:08)
Verse x2 (2:19)
Pre-Chorus x2 (2:31)
Chorus x4 (2:42)

End (3:05)
|---------------------|
|---------------------|
|--0-0-2--------------|
|--------0~--0-0-0-0--|
		   .





Comments


Popular In Flames tabs & chords
Clayman Bass Tabs
Clayman 5 Bass Tabs
Moonshield 2 Bass Tabs
My Sweet Shadow Bass Tabs
Whoracle Bass Tabs
Zombie Inc Bass Tabs
Only For The Weak 1 Chords
Dead God In Me Tabs
Im The Highway Tabs
Whoracle Tabs


Song lyrics



↑ Back to top | Tablatures and chords are parodies/interpretations of the original songs. You may use it for private study, scholarship, research or language learning purposes only
© 2014 AZChords.com Contact us | Privacy policy | DMCA | Add/correct tabs | Request tabs | Top 50 tabs